Oops, an error
Loading. Please wait.

Epitaph album tab

version 1
version 1

Album

Whole song

Interactive

7,961 views 6 this week
10 commentsread comments
1 2 3 4 5
x 10
add to favorites
×
Save as Personal and add changes to this tab that will be seen only by you. Learn more ›
×
You can save this tab as Personal to edit and correct it or add notes. All changes will be seen only by you. Learn more »
launch autoscroll
font size
0
reset
how to read this tab
guitar tuner
backing track
0:00
0:00
edit
Autoscroll
slow
fast
+/-
esc
set tempo
stop
NECROPHAGIST

EPITAPH



01 - STABWOUND - ====================================================

Q=250

|-----------------|---------------------|
|-----------------|---------------------|
|-----------------|---------------------|
|-----------------|---------------------|
|-9-6-9-6-9-6-9-6-|-7-7-7--9-7-7-[10]-7-|
|-----------------|---------------------|
|
| Gtr II
|-----------------|---------------------|
|-----------------|---------------------|
|-----------------|-9-----11------12----|
|-----------------|---------------------|
|-9-6-9-6-9-6-9-6-|---7-7----7-7------7-|
|-----------------|---------------------|


|-----------------|------------------------------|
|-----------------|------------------------------|
|-----------------|------------------------------|
|-----------------|------------------------------|
|-9-6-9-6-9-6-9-6-|-7-7-7--9--2-------4----[10]--|
|-----------------|-----------0-------2----------|
|
|-----------------|------------------------------|
|-----------------|------------------------------|
|-----------------|-9----------------------------|
|-----------------|----------12p10---------------|
|-9-6-9-6-9-6-9-6-|---7-7-10-------10-------10---|
|-----------------|-------------------8h12-------|


|-------------------|---------------------|
|-------------------|---------------------|
|-------------------|---------------------|
|-------------------|---------------------|
|-[9]-6-2-6---------|-7------9-----[10]-7-|
|-----------5-2-2-2-|---0-0----0-0--------|
|
|-------------------|---------------------|
|-------------------|---------------------|
|-11--8-------------|-9-----11------12----|
|-------------------|---------------------|
|-------9-6-9-6-9-6-|---7-7----7-7------7-|
|-------------------|---------------------|


|------------------|-------------------|
|------------------|-------------------|
|------------------|-------------------|
|---------------10-|-------------------|
|-9-6---10---------|------7-----7------|
|-----0----0--3----|-8-8----8-8---8-0--|
|
|------------------|-------------------|
|--------8---------|-------------------|
|------------------|-------------------|
|---------------10-|-----10------------|
|-9-6------7-10----|-------------------|
|-----0------------|-8-8----8----------|


|-----------------|-----------------|-----------------|-----------------------|
|-----------------|-----------------|-----------------|-----------------------|
|-----------------|-----------------|-----------------|-----------------------|
|-------4-----4---|-----5-----------|---4-------------|-5-----8-------------4-|
|-----------------|-----------------|-----------------|-----------------------|
|-0-2-2---2-2---0-|-2-3---3-3-3-0-2-|-0---2-2-2-2-0-2-|---3--------3--0-2-0---|
|
|-----------------|-----------------|-----------------|-----------------------|
|-----------------|-----8---8p5-----|-----------------|-8---------------------|
|-----------------|-----------------|-----------------|---9-[11]-[10]---------|
|-------4-----4---|-----------------|---4-------------|---------------------4-|
|-----------------|-----------------|-----------------|-----------------------|
|-0-2-2---2-2---2-|-0-2---3-----0-2-|-0---2-2-2-2-0-2-|---------------0-2-0---|


|-----------------|-----------------|-----------------|-----------------|
|-----------------|-----------------|-----------------|-----------------|
|-----------------|-----------4-----|-----------5-----|-----------------|
|-----4-------5---|-----------------|-5-----7-------9p|=7p5-------------|
|-----------------|---------2---2-2-|---------0---0---|-----9-6-9-6-9-6-|
|-2-2---2-0-2---3-|-3-3-0-3---------|---3-5-----------|-----------------|
|
|-----------------|-----------------|-----------------|-----------------|
|-------------8---|-----------------|-----------------|-----------------|
|-----------------|-----------4-----|-------5---9---7p|=5p4-------------|
|-----------------|-----------------|-5---------------|-----------------|
|-----------------|---------2---2-2-|-----0---0---0---|-----9-6-9-6-9-6-|
|-2-2-4-2-0-2---3-|-3-3-0-3---------|---3-------------|-----------------|


|-----------------|-------------------|-----------------|---------------|
|-----------------|-------------------|-----------------|---------------|
|-----------------|-------------------|-----------------|---------------|
|-----------------|-------------------|-----------------|---------------|
|-9-6---7---7---7-|-------9-6-9-6-9-6-|-9-6---7---7-----|---9-6-2-6-----|
|-----0---0---0---|-[3]-0-------------|-----0---0----3--|-----------5-2-|
|
|-----------------|-------------------|-----------------|---------------|
|-----------------|-------------------|-----------------|---------------|
|-------9---9---9-|-------------------|-------9---9-----|---------------|
|-----------------|-------------------|-----------------|---------------|
|-9-6-7---7---7---|-10--7-9-6-9-6-9-6-|-9-6-7---7---10--|---9-6-9-6-9-6-|
|-----------------|-------------------|-----------------|---------------|


                                       Q
|-----------------|--------------------|
|-----------------|--------------------|
|-----------------|--------------------|
|-----------------|------------10---10-|
|-------7---7---7-|------9-6-----------|
|-2-2-0---0---0---|--3-0-----8----8----|
|
|-----------------|--------------------|
|-----------------|--------------------|
|-------9---9---9-|--------------------|
|-----------------|------------10----7-|
|-9-6-7---7---7---|-10-7-9-6------0----|
|-----------------|----------8---------|


 .=150
 9/8
|-------------------------------------------------|
|-------------------------------------------------|
|-------------------------------------------------|
|---------------------------------------------1---|
|--2----4-------[7]-------------4-------2-----2---|
|--0----2-----------------------2-------0---------|
|
|----------------------12-----------------12------|
|------------12-----13----13-12------13------12---|
|---------12----------------------14--------------|
|-------------------------------------------------|
|-10-14-------------------------------------------|
|-------------------------------------------------|


  Q=240
 4/4
  Gtr I
|----------|-------------------------------------|------------------|
|----------|-------------------------------------|------------------|
|----------|-------------------------------------|------------------|
|---4------|-------------------------------------|------------------|
|----------|--2----------------------------------|-(2)------3-------|
|---2------|--0----------------------------------|-(0)------1-------|
|
| Gtr II
|----------|-------------------------------------|------------------|
|---7------|-------------------------------------|------------------|
|---8------|-------------------------------------|------------------|
|---8------|-------------------------------------|------------------|
|---9------|--2----------------------------------|-(2)------3-------|
|----------|--0----------------------------------|-(0)------1-------|
|
| Gtr III
|                               T
|----------|-------------15-19-24-19-15----------|------------------|
|----------|----------17----------------17-------|------------------|
|----------|-------16----------------------16----|------------------|
|----------|----18----------------------------18-|------------------|
|----------|-19----------------------------------|-19\------8-11-12-|
|----------|-------------------------------------|------------------|


  Gtr I
|-------------------------------------|
|-------------------------------------|
|-------------------------------------|
|-------------------------------------|
|-(3)---------------------------------|
|-(1)---------------------------------|
|
| Gtr II
|-------------------------------------|
|-------------------------------------|
|-------------------------------------|
|-------------------------------------|
|-(3)---------------------------------|
|-(1)---------------------------------|
|
| Gtr III
|----------------------------10-12-13-|
|-------------------10-12-13----------|
|-----------9-10-13-------------------|
|--9--10-12---------------------------|
|-------------------------------------|
|-------------------------------------|


|-------------------------------------------------|------------------|
|-------------------------------------------------|------------------|
|--5S====7-----7----------------------------------|--(7)-------------|
|-------------------------------------------------|------------------|
|--3S====5-----5----------------------------------|--(5)--------2----|
|-------------------------------------------------|-------------0----|
|
|-------------------------------------------------|------------------|
|-------------------------------------------------|------------------|
|--7S===10----10----------------------------------|-(10)-------------|
|-------------------------------------------------|------------------|
|-------------------------------------------------|-------------2----|
|-------------------------------------------------|-------------0----|
|
|  T           T           T           T              T
|-17-13p12p10-17-13p12p10-17-13p12p10-20-16p13p12-|--20--16p13-12----|
|-------------------------------------------------|------------------|
|-------------------------------------------------|------------------|
|-------------------------------------------------|------------------|
|-------------------------------------------------|------------------|
|-------------------------------------------------|------------------|


                   Q=190
 3/4              4/4
  Gtr I
|----------------|---------------------------------|
|----------------|---------------------------------|
|----------------|---------------------------------|
|----------------|---------------------------------|
|-(2)------------|--(2)-----3----------------------|
|-(0)------------|--(0)-----1----------------------|
|
| Gtr II
|----------------|---------------------------------|
|----------------|---------------------------------|
|----------------|---------------------------------|
|----------------|---------------------------------|
|-(2)------------|--(2)-----3----------------------|
|-(0)------------|--(0)-----1----------------------|
|
| Gtr III
|                                       T
|-12b12.5r=======|=(12)-------13-16-19-22-19-16-13-|
|----------------|---------12----------------------|
|----------------|---------------------------------|
|----------------|---------------------------------|
|----------------|---------------------------------|
|----------------|---------------------------------|


|---------------------------------|
|---------------------------------|
|---------------------------------|
|---------------------------------|
|-(3)-----------------------------|
|-(1)-----------------------------|
|
|---------------------------------|
|---------------------------------|
|---------------------------------|
|---------------------------------|
|-(3)-----------------------------|
|-(1)-----------------------------|
|
|               T           ~~
|-----13-16-19-22-19-16-13--------|
|-12-----------------------12-----|
|---------------------------------|
|---------------------------------|
|---------------------------------|
|---------------------------------|


  Gtr I
|---------------------------------------------------|
|---------------------------------------------------|
|---------------------------------------------------|
|--6h====9-----9-----9-----------------------(9)--7-|
|---------------------------------------------------|
|---------------------------------------------------|
|
| Gtr II
|---------------------------------------------------|
|---------------------------------------------------|
|---------------------------------------------------|
|--9h===12----12----12----------------------(12)-10-|
|---------------------------------------------------|
|---------------------------------------------------|
|
| Gtr III
|-17-16-13-16-13----13------------------------------|
|----------------17----17-15-17-15-13-15-13------13-|
|--------------------------------------------16-----|
|---------------------------------------------------|
|---------------------------------------------------|
|---------------------------------------------------|


 3/4
|---------------------------|
|---------------------------|
|---------------------------|
|--(7)-----------(7)--6-----|
|---------------------8-----|
|---------------------------|
|
|---------------------------|
|---------------------------|
|---------------------------|
|-(10)----------(10)--9-----|
|--------------------11-----|
|---------------------------|
|
|                     ~~
|---------------------------|
|---------------------------|
|--16--14-13-16--14--13-----|
|---------------------------|
|---------------------------|
|---------------------------|


   Q.=120
 6/8                                                         1/4
  Gtr I
|------------|--------------|------------------|------------|-----|
|------------|--------------|--------------12--|-(12)--11---|-11--|
|------------|--------------|------9-13-14-----|------------|-10--|
|--------3---|-(3)----------|------------------|------------|-----|
|------3-----|-----2----(2)-|-(2)--------------|------------|-----|
|--1-4-------|-----0----(0)-|-(0)--------------|------------|-----|
|
| Gtr II
|------------|--------------|------------------|------------|-----|
|--------6---|-(6)----------|--------------12--|-(12)-------|-11--|
|------5-----|--------------|------9-13-14-----|-------10---|-10--|
|--3-6-------|--------------|------------------|--------8---|-----|
|------------|-----2----(2)-|-(2)--------------|------------|-----|
|------------|-----0----(0)-|-(0)--------------|------------|-----|


  Q.=120
 6/8
|-------------------------------------|
|-------------------------------------|
|-------------------------------------|
|-------------------------------------|
|-----------7--0h=3h=7p=3p=2h=3h=7p=3p|
|--0--0--0----------------------------|
|
|-------------24p19-------------------|
|----------17-------17----------------|
|-------16-------------16----16----17-|
|----17-------------------17----19----|
|-19----------------------------------|
|-------------------------------------|


|-------------------------------------|-------------------------------------|
|-------------------------------------|-------------------------------------|
|-------------------------------------|-------------------------------------|
|-------------------------------------|-----------------------------5-------|
|--2--0--0--0--0h=3p=0--6--6--6--6h12p|==6-----------------------2-----2----|
|-------------------------------------|-----0h=3h=7p=3p=0h=3p=2-----------3-|
|
|----------------23-------------------|-20p19----------------19----19h24p19-|
|----------19h22----22p19----------19-|-------20----------20----20----------|
|-------20----------------20----20----|----------21----21-------------------|
|-19h21----------------------19-------|-------------21----------------------|
|-------------------------------------|-------------------------------------|
|-------------------------------------|-------------------------------------|


 4/8            6/8
|--------------|--------------------|
|--------------|--------------------|
|--------------|--------------------|
|-----------4--|------------2--(2)--|
|--------------|------------2--(2)--|
|--2--2--2--2--|---0--0--0----------|
|
|--------------|--------19h24-(24)--|
|-20----19h22--|-----20-------------|
|----17--------|--21----------------|
|--------------|--------------------|
|--------------|--------------------|
|--------------|--------------------|


    Q=250
   4/4
||-----------------|-----------------|-----------------|---------------|
||o----------------|-----------------|-----------------|---------------|
||-----------------|-------------3---|-----------------|-----3---------|
||---4-1-----------|-----5-----------|---4-1-----------|-----------4---|
||o----------------|-----------------|-----------------|---------------|
||-------0-2-3-3-3-|-3-3---3-3-2---3-|-3-----0-2-3-3-3-|-3-3---0-3-2---|
|
||-----------------|-----------------|-----------------|---------------|
||o----------------|-----------------|-----------------|---------------|
||-----------------|-----3-------7---|-----------------|-3---3---------|
||---4-1-----------|-----------------|---4-1-----------|-----------4---|
||o----------------|-----------------|-----------------|---------------|
||-------0-2-3-3-3-|-3-3---3-3-2---3-|-3-----0-2-3-3-3-|---3---0-3-2---|


                                                         9/8
|-------------------|-----------------|-----------------|----------------|
|-------------------|-----------------|-----------------|----------------|
|-------------------|-------------3---|-----------------|-----3----------|
|-(4)-4-1-----------|-----5-----------|---4-1-----------|-----------4----|
|-------------------|-----------------|-----------------|----------------|
|-(2)-----0-2-3-3-3-|-3-3---3-3-2---3-|-3-----0-2-3-3-3-|-3-3---0-3-2----|
|
|-------------------|-----------------|-----------------|----------------|
|-------------------|-----------------|-----------------|----------------|
|-------------------|-----3-------7---|-----------------|-3---3----------|
|-(4)-4-1-----------|-----------------|---4-1-----------|-----------4----|
|-------------------|-----------------|-----------------|----------------|
|-(2)-----0-2-3-3-3-|-3-3---3-3-2---3-|-3-----0-2-3-3-3-|---3---0-3-2----|


|-----------------|-------------------|-----------------|---------------|
|-----------------|-------------------|-----------------|---------------|
|-----------------|-------------------|-----------------|---------------|
|-----------------|-------------------|-----------------|---------------|
|-9-6-9-6-9-6-9-6-|---7---7---7-------|-9-6-9-6-9-6-9-6-|---7---7-------|
|-----------------|-0---0---0---[3]-0-|-----------------|-0---0----3----|
|
|-----------------|-------------------|-----------------|---------------|
|-----------------|-------------------|-----------------|---------------|
|-----------------|---9---9---9-------|-----------------|---9---9-------|
|-----------------|-------------------|-----------------|---------------|
|-9-6-9-6-9-6-9-6-|-7---7---7---10--7-|-9-6-9-6-9-6-9-6-|-7---7---10----|
|-----------------|-------------------|-----------------|---------------|


                                                       Q
                                        3/4
|-------------------|------------------|---------------|
|-------------------|------------------|---------------|
|-------------------|------------------|---------------|
|-------------------|------------------|-------10---10-|
|-[9]-6-2-6---------|---7---7---7------|-9-6-----------|
|-----------5-2-2-2-|-0---0---0----3-0-|-----8----8----|
|
|-------------------|------------------|---------------|
|-------------------|------------------|---------------|
|-------------------|---9---9---9------|---------------|
|-------------------|------------------|-------10----7-|
|--9--6-9-6-9-6-9-6-|-7---7---7---10-7-|-9-6------0----|
|-------------------|------------------|-----8---------|


 .=150
 9/8
|---------------------------------------------------||
|--------------------------------------------------o||
|---------------------------------------------------||
|---------------------------------------------1-----||
|--2----4-------[7]-------------4-------2-----2----o||
|--0----2-----------------------2-------0-----------||
|
|----------------------12-----------------12--------||
|------------12-----13----13-12------13------12----o||
|---------12----------------------14----------------||
|---------------------------------------------------||
|-10-14--------------------------------------------o||
|---------------------------------------------------||


  Q=240
 4/4
  Gtr I
|----------|-------------------------------------|------------------|
|----------|-------------------------------------|------------------|
|----------|-------------------------------------|------------------|
|---4------|-------------------------------------|------------------|
|----------|--2----------------------------------|-(2)------3-------|
|---2------|--0----------------------------------|-(0)------1-------|
|
| Gtr II
|----------|-------------------------------------|------------------|
|---7------|-------------------------------------|------------------|
|---8------|-------------------------------------|------------------|
|---8------|-------------------------------------|------------------|
|---9------|--2----------------------------------|-(2)------3-------|
|----------|--0----------------------------------|-(0)------1-------|
|
| Gtr III
|                               T
|----------|-------------15-19-24-19-15----------|------------------|
|----------|----------17----------------17-------|------------------|
|----------|-------16----------------------16----|------------------|
|----------|----18----------------------------18-|------------------|
|----------|-19----------------------------------|-19\------8-11-12-|
|----------|-------------------------------------|------------------|


  Gtr I
|-------------------------------------|
|-------------------------------------|
|-------------------------------------|
|-------------------------------------|
|-(3)---------------------------------|
|-(1)---------------------------------|
|
| Gtr II
|-------------------------------------|
|-------------------------------------|
|-------------------------------------|
|-------------------------------------|
|-(3)---------------------------------|
|-(1)---------------------------------|
|
| Gtr III
|----------------------------10-12-13-|
|-------------------10-12-13----------|
|-----------9-10-13-------------------|
|--9--10-12---------------------------|
|-------------------------------------|
|-------------------------------------|


|-------------------------------------------------|------------------|
|-------------------------------------------------|------------------|
|--5S====7-----7----------------------------------|--(7)-------------|
|-------------------------------------------------|------------------|
|--3S====5-----5----------------------------------|--(5)--------2----|
|-------------------------------------------------|-------------0----|
|
|-------------------------------------------------|------------------|
|-------------------------------------------------|------------------|
|--7S===10----10----------------------------------|-(10)-------------|
|-------------------------------------------------|------------------|
|-------------------------------------------------|-------------2----|
|-------------------------------------------------|-------------0----|
|
|  T           T           T           T              T
|-17-13p12p10-17-13p12p10-17-13p12p10-20-16p13p12-|--20--16p13-12----|
|-------------------------------------------------|------------------|
|-------------------------------------------------|------------------|
|-------------------------------------------------|------------------|
|-------------------------------------------------|------------------|
|-------------------------------------------------|------------------|


                     Q=190
 3/4                4/4
  Gtr I
|------------------|---------------------------------|
|------------------|---------------------------------|
|------------------|---------------------------------|
|------------------|---------------------------------|
|--(2)-------------|--(2)-----3----------------------|
|--(0)-------------|--(0)-----1----------------------|
|
| Gtr II
|------------------|---------------------------------|
|------------------|---------------------------------|
|------------------|---------------------------------|
|------------------|---------------------------------|
|--(2)-------------|--(2)-----3----------------------|
|--(0)-------------|--(0)-----1----------------------|
|
| Gtr III
|                                         T
|-(12)b12.5r=======|=(12)-------13-16-19-22-19-16-13-|
|------------------|---------12----------------------|
|------------------|---------------------------------|
|------------------|---------------------------------|
|------------------|---------------------------------|
|------------------|---------------------------------|


|---------------------------------|
|---------------------------------|
|---------------------------------|
|---------------------------------|
|-(3)-----------------------------|
|-(1)-----------------------------|
|
|---------------------------------|
|---------------------------------|
|---------------------------------|
|---------------------------------|
|-(3)-----------------------------|
|-(1)-----------------------------|
|
|               T           ~~
|-----13-16-19-22-19-16-13--------|
|-12-----------------------12-----|
|---------------------------------|
|---------------------------------|
|---------------------------------|
|---------------------------------|


  Gtr I
|---------------------------------------------------|
|---------------------------------------------------|
|---------------------------------------------------|
|--6h====9-----9-----9-----------------------(9)--7-|
|---------------------------------------------------|
|---------------------------------------------------|
|
| Gtr II
|---------------------------------------------------|
|---------------------------------------------------|
|---------------------------------------------------|
|--9h===12----12----12----------------------(12)-10-|
|---------------------------------------------------|
|---------------------------------------------------|
|
| Gtr III
|-17-16-13-16-13----13------------------------------|
|----------------17----17-15-17-15-13-15-13------13-|
|--------------------------------------------16-----|
|---------------------------------------------------|
|---------------------------------------------------|
|---------------------------------------------------|


 3/4
|---------------------------|
|---------------------------|
|---------------------------|
|--(7)-----------(7)--6-----|
|---------------------8-----|
|---------------------------|
|
|---------------------------|
|---------------------------|
|---------------------------|
|-(10)----------(10)--9-----|
|--------------------11-----|
|---------------------------|
|
|                     ~~
|---------------------------|
|---------------------------|
|--16--14-13-16--14--13-----|
|---------------------------|
|---------------------------|
|---------------------------|


  Q=240
 4/4
  Gtr I
|----------------------------------------------|-----------------------|
|----------------------------------------------|-----------------------|
|----------------------------------------------|-----------------------|
|----------------------------------------------|-----------2-----------|
|--2-------------------------------------------|--(2)------------------|
|--0-------------------------------------------|--(0)----1-------------|
|
| Gtr III
|----------------------------------------------|-----------------------|
|----------16b17r=(16)-------------------------|-----------------------|
|-------16-------------17-16-15-(15)-(15)b16===|=(15)--------(15)b17===|
|----17----------------------------------------|-----------------------|
|-19-------------------------------------------|-----------------------|
|----------------------------------------------|-----------------------|
|
| Gtr IV
|----------------------------------------------|-----------------------|
|----------------------------------------------|-----------------------|
|----------------------------------------------|-----------------------|
|----------------------------------------------|-----------------------|
|----------------------------------------------|-----------------------|
|----------------------------------------------|-----------------------|


|------------------------|----------------------|------------------|
|------------------------|----------------------|------------------|
|------------------------|----------------------|------------------|
|------------------------|----------------------|------------------|
|---3--------------------|-(3)------8-5---------|---6--------------|
|---1--------------------|-(1)------------------|---4--------------|
|
|------------------------|----------------------|------------------|
|---------------------16-|-17b18r=======16b17r\-|-(16)\------------|
|-(15)r===(15)--16-17----|----------------------|----------17--16--|
|------------------------|----------------------|------------------|
|------------------------|----------------------|------------------|
|------------------------|----------------------|------------------|
|
|------------------------|----------------------|------------------|
|------------------------|----------------------|------------------|
|------------------------|----------------------|------------------|
|------------------------|----------------------|------------------|
|------------------------|----------------------|------------------|
|------------------------|----------------------|------------------|


  Gtr I
|-------------------|--------------|----------------------------------------|
|-------------------|--------------|----------------------------------------|
|-------------------|--------------|----------------------------------------|
|-------------------|--------------|----------------------------------------|
|-(6)----5----------|--2-----------|-(2)-----3------------------------------|
|-(4)----3----------|--0-----------|-(0)-----1------------------------------|
|
| Gtr III
|-------------------|--------------|----------------------------------------|
|-------------------|-16b18========|========================================|
|-----13------------|--------------|----------------------------------------|
|----------15-14----|--------------|----------------------------------------|
|-------------------|--------------|----------------------------------------|
|-------------------|--------------|----------------------------------------|
|
| Gtr IV
|-------------------|--------------|----------------------9-10-12-13-16-17--|
|-------------------|--------------|--------------9-10-12-------------------|
|-------------------|--------------|------9-10-12---------------------------|
|-------------------|--------------|----------------------------------------|
|-------------------|--------------|----------------------------------------|
|-------------------|--------------|----------------------------------------|


  Gtr I
|---------------|--------------------|-----------|
|---------------|--------------------|-----------|
|---------------|--------------------|-----------|
|---------------|----------------2---|-----------|
|--2------------|-(2)----------------|--3--------|
|--0------------|-(0)-------1--------|--1--------|
|
| Gtr III
|---------------|--------------------|-----------|
|---------------|--------------------|-----------|
|---------------|--------------------|-----------|
|---------------|--------------------|-----------|
|---------------|--------------------|-----------|
|---------------|--------------------|-----------|
|
| Gtr IV
|         ~~~~                          ~~
|-16----(16)----|-18b20r=============|===========|
|---------------|----------18b20r====|===========|
|---------------|--------------------|-17--------|
|---------------|--------------------|-----------|
|---------------|--------------------|-----------|
|---------------|--------------------|-----------|


|---------------------------------------------|--------------------------------|
|---------------------------------------------|--------------------------------|
|---------------------------------------------|--------------------------------|
|---------------------------------------------|--------------------------------|
|-(3)------------------8-----5----------------|--6-----------------------------|
|-(1)-----------------------------------------|--4-----------------------------|
|
|----------16-17-20-17------------------------|--------------------------------|
|-------18-------------18---------------------|--------------------------------|
|-----17------------------17------------------|--------------------------------|
|--19------------------------19---------------|--------------------------------|
|20-----------------------------20-19---------|------------3-5-7---------------|
|-------------------------------------20-17-13|12-11-4-5-7------8-7-5-6-5-3-2-0|
|
|---------------------------------------------|--------------------------------|
|---------------------------------------------|--------------------------------|
|---------------------------------------------|--------------------------------|
|---------------------------------------------|--------------------------------|
|---------------------------------------------|--------------------------------|
|---------------------------------------------|--------------------------------|


  Gtr I
|---------------------------------|----------------------------------|
|---------------------------------|----------------------------------|
|---------------------------------|----------------------------------|
|---------------------------------|----------------------------------|
|-(6)-------5---------------------|-2--------------------------------|
|-(4)-------3---------------------|-0--------------------------------|
|
| Gtr III
|---------------------------------|----------------------------------|
|---------------------------------|----------------------------------|
|---------------------5-7-9-7-5-4-|----------------------------------|
|---------------5-7-9-------------|-6-7-6-7-5-4-5-7-4-5-7-9-5-7-9-10-|
|---------5-7-8-------------------|----------------------------------|
|--5--7-8-------------------------|----------------------------------|
|
| Gtr IV
|---------------------------------|----------------------------------|
|---------------------------------|----------------------------------|
|---------------------------------|----------------------------------|
|---------------------------------|----------------------------------|
|---------------------------------|----------------------------------|
|---------------------------------|----------------------------------|


|--------------------------------------------------|
|--------------------------------------------------|
|--------------------------------------------------|
|--------------------------------------------------|
|-(2)--------3-------------------------------------|
|-(0)--------1-------------------------------------|
|
|--------------------------12-13-16-17-(17)-(17)---|
|-----------------10-12-13-------------------------|
|----------7-9-10----------------------------------|
|--7--9-10-----------------------------------------|
|--------------------------------------------------|
|--------------------------------------------------|
|
|--------------------------------------------------|
|--------------------------------------------------|
|--------------------------------------------------|
|--------------------------------------------------|
|--------------------------------------------------|
|--------------------------------------------------|


  Gtr I
|---------------|-------------------|
|---------------|-------------------|
|---------------|-------------------|
|---------------|---------------2---|
|--2------------|--(2)--------------|
|--0------------|--(0)-----1--------|
|
| Gtr III
|         ~~~~
|-16----(16)----|-(16)----18b21r====|
|---------------|-------------------|
|---------------|-------------------|
|---------------|-------------------|
|---------------|-------------------|
|---------------|-------------------|
|
| Gtr IV
|---------------|---------23b24r====|
|---------------|-------------------|
|---------------|-------------------|
|---------------|-------------------|
|---------------|-------------------|
|---------------|-------------------|


|-------------------------|-----------------------|---------|
|-------------------------|-----------------------|---------|
|-------------------------|-----------------------|---------|
|-------------------------|-----------------------|---------|
|--3----------------------|-(3)-----------8-5-----|---6-----|
|--1----------------------|-(1)-------------------|---4-----|
|
|                                         ~~~~~~~~~~~~~~~
|-17-18-17-16-17-16----16-|-----------------------|---------|
|-------------------18----|-18--17-18-17-15---16--|-(16)----|
|-------------------------|-----------------------|---------|
|-------------------------|-----------------------|---------|
|-------------------------|-----------------------|---------|
|-------------------------|-----------------------|---------|
|
|                                                     ~~~~
|-20-22-20-19-20-19----19-|-----------------------|---------|
|-------------------22----|-22--21-22-21-18---22--|--21-----|
|-------------------------|-----------------------|---------|
|-------------------------|-----------------------|---------|
|-------------------------|-----------------------|---------|
|-------------------------|-----------------------|---------|


 5/4             4/4
  Gtr I
|---------------|-------------|-----------|
|---------------|-------------|-----------|
|---------------|-------------|-----------|
|---------------|-------------|-----------|
|-(6)----5------|---2---------|-(2)--3----|
|-(4)----3------|---0---------|-(0)--1----|
|
| Gtr III
|---------------|-------------|-----------|
|-17b18r========|=(17)--------|-15\-------|
|---------------|-------------|-----------|
|---------------|-------------|-----------|
|---------------|-------------|-----------|
|---------------|-------------|-----------|
|
| Gtr IV
|---------------|-------------|-----------|
|-21b22r========|=(21)--------|-18--------|
|---------------|-------------|-----------|
|---------------|-------------|-----------|
|---------------|-------------|-----------|
|---------------|-------------|-----------|


  Gtr I
|-----------|---------------|-------------------------------------------------|
|-----------|---------------|-------------------------------------------------|
|-----------|---------------|-------------------------------------------------|
|-----------|-----------2---|-------------------------------------------------|
|--2--------|--(2)----------|--3----------------------------------------------|
|--0--------|--(0)----1-----|--1----------------------------------------------|
|
| Gtr III
|               ~~~~
|-----------|---------------|-------------------------------------------------|
|-13--------|-(13)----------|-------------------------------------------------|
|-----------|---------------|-------------------------------------------------|
|-----------|---------------|-------------------------------------------------|
|-----------|---------------|-------------------------------------------------|
|-----------|---------------|-------------------------------------------------|
|
| Gtr IV
|               ~~~~
|-----------|---------------|----------16-------------------------------------|
|-17--------|-(17)----------|----17-18----18-17----17-18-17-------------------|
|-----------|---------------|-19----------------19----------19-17-16-14-13-14-|
|-----------|---------------|-------------------------------------------------|
|-----------|---------------|-------------------------------------------------|
|-----------|---------------|-------------------------------------------------|


|-----------------------------------------------------|
|-----------------------------------------------------|
|-----------------------------------------------------|
|-----------------------------------------------------|
|-(3)-----------------------8-----5-------------------|
|-(1)-------------------------------------------------|
|
|-----------------------------------------------------|
|-----------------------------------------------------|
|-----------------------------------------------------|
|-----------------------------------------------------|
|-----------------------------------------------------|
|-----------------------------------------------------|
|
|-----------------------------------------------------|
|-12--13-------------------------------12-------------|
|--------16-14-13----------------13-14----14-13-------|
|-----------------15-14-12-14-15----------------15----|
|-----------------------------------------------------|
|-----------------------------------------------------|


|-------------------------------------------------|
|-------------------------------------------------|
|-------------------------------------------------|
|-------------------------------------------------|
|--6----------------------------------------------|
|--4----------------------------------------------|
|
|-------------------------------------------------|
|-------------------------------------------------|
|-------------------------------------------------|
|-------------------------------------------------|
|-------------------------------------------------|
|-------------------------------------------------|
|
|-------------------------------------------------|
|-------------------------------------------------|
|-------------------------------------------------|
|-15-14-12-14-15-14-12----12-14-12----------------|
|----------------------15----------15-14-12----14-|
|-------------------------------------------15----|


|--------------------------------------------------------|-------|
|--------------------------------------------------------|-------|
|--------------------------------------------------------|-------|
|--------------------------------------------------------|-------|
|-(6)-----5----------------------------------------------|-------|
|-(4)-----3----------------------------------------------|-------|
|
|                                                           ~~
|--------------------------------------------------------|-------|
|--------------------------------------------------------|-------|
|--------------------------------------------------------|-------|
|---------------------------------------13b14r===========|=13----|
|--------------------------------------------------------|-------|
|--------------------------------------------------------|-------|
|
|                                                           ~~
|--------------------------------------------------------|-------|
|--------------------------------------------------------|-------|
|--------------------------12-14-15-14--13----(13)b14.5r=|=13----|
|-----------------12-14-15-------------------------------|-------|
|-12-----12-14-15----------------------------------------|-------|
|-----15-------------------------------------------------|-------|


   Q.=120
 6/8                                                         1/4
  Gtr I
|------------|--------------|------------------|------------|-----|
|------------|--------------|--------------12--|-(12)--11---|-11--|
|------------|--------------|------9-13-14-----|------------|-10--|
|--------3---|-(3)----------|------------------|------------|-----|
|------3-----|-----2----(2)-|-(2)--------------|------------|-----|
|--1-4-------|-----0----(0)-|-(0)--------------|------------|-----|
|
| Gtr II
|------------|--------------|------------------|------------|-----|
|--------6---|-(6)----------|--------------12--|-(12)-------|-11--|
|------5-----|--------------|------9-13-14-----|-------10---|-10--|
|--3-6-------|--------------|------------------|--------8---|-----|
|------------|-----2----(2)-|-(2)--------------|------------|-----|
|------------|-----0----(0)-|-(0)--------------|------------|-----|


  Q.=120
 6/8
|-------------------------------------|
|-------------------------------------|
|-------------------------------------|
|-------------------------------------|
|-----------7--0h=3h=7p=3p=2h=3h=7p=3p|
|--0--0--0----------------------------|
|
|-------------24p19-------------------|
|----------17-------17----------------|
|-------16-------------16----16----17-|
|----17-------------------17----19----|
|-19----------------------------------|
|-------------------------------------|


|-------------------------------------|-------------------------------------|
|-------------------------------------|-------------------------------------|
|-------------------------------------|-------------------------------------|
|-------------------------------------|-----------------------------5-------|
|--2--0--0--0--0h=3p=0--6--6--6--6h12p|==6-----------------------2-----2----|
|-------------------------------------|-----0h=3h=7p=3p=0h=3p=2-----------3-|
|
|----------------23-------------------|-20p19----------------19----19h24p19-|
|----------19h22----22p19----------19-|-------20----------20----20----------|
|-------20----------------20----20----|----------21----21-------------------|
|-19h21----------------------19-------|-------------21----------------------|
|-------------------------------------|-------------------------------------|
|-------------------------------------|-------------------------------------|


|--------------|--------------------|
|--------------|--------------------|
|--------------|--------------------|
|-----------4--|------------2--(2)--|
|--------------|------------2--(2)--|
|--2--2--2--2--|---0--0--0----------|
|
|--------------|--------19h24-(24)--|
|-20----19h22--|-----20-------------|
|----17--------|--21----------------|
|--------------|--------------------|
|--------------|--------------------|
|--------------|--------------------|


    Q=250
   4/4
||-----------------|-----------------|-----------------|---------------|
||o----------------|-----------------|-----------------|---------------|
||-----------------|-------------3---|-----------------|-----3---------|
||---4-1-----------|-----5-----------|---4-1-----------|-----------4---|
||o----------------|-----------------|-----------------|---------------|
||-------0-2-3-3-3-|-3-3---3-3-2---3-|-3-----0-2-3-3-3-|-3-3---0-3-2---|
|
||-----------------|-----------------|-----------------|---------------|
||o----------------|-----------------|-----------------|---------------|
||-----------------|-----3-------7---|-----------------|-3---3---------|
||---4-1-----------|-----------------|---4-1-----------|-----------4---|
||o----------------|-----------------|-----------------|---------------|
||-------0-2-3-3-3-|-3-3---3-3-2---3-|-3-----0-2-3-3-3-|---3---0-3-2---|


                                                         9/8
|-------------------|-----------------|-----------------|----------------|
|-------------------|-----------------|-----------------|----------------|
|-------------------|-------------3---|-----------------|-----3----------|
|-(4)-4-1-----------|-----5-----------|---4-1-----------|-----------4----|
|-------------------|-----------------|-----------------|----------------|
|-(2)-----0-2-3-3-3-|-3-3---3-3-2---3-|-3-----0-2-3-3-3-|-3-3---0-3-2----|
|
|-------------------|-----------------|-----------------|----------------|
|-------------------|-----------------|-----------------|----------------|
|-------------------|-----3-------7---|-----------------|-3---3----------|
|-(4)-4-1-----------|-----------------|---4-1-----------|-----------4----|
|-------------------|-----------------|-----------------|----------------|
|-(2)-----0-2-3-3-3-|-3-3---3-3-2---3-|-3-----0-2-3-3-3-|---3---0-3-2----|


 4/4
|-----------------|-------------------|-----------------|--------------|
|-----------------|-------------------|-----------------|--------------|
|-----------------|-------------------|-----------------|--------------|
|-----------------|-------------------|-----------------|--------------|
|-9-6-9-6-9-6-9-6-|---7---7---7-------|-9-6-9-6-9-6-9-6-|---7---7------|
|-----------------|-0---0---0---[3]-0-|-----------------|-0---0----3---|
|
|-----------------|-------------------|-----------------|--------------|
|-----------------|-------------------|-----------------|--------------|
|-----------------|---9---9---9-------|-----------------|---9---9------|
|-----------------|-------------------|-----------------|--------------|
|-9-6-9-6-9-6-9-6-|-7---7---7---10--7-|-9-6-9-6-9-6-9-6-|-7---7---10---|
|-----------------|-------------------|-----------------|--------------|


                                                       Q
                                        3/4
|-------------------|------------------|---------------|
|-------------------|------------------|---------------|
|-------------------|------------------|---------------|
|-------------------|------------------|-------10---10-|
|-[9]-6-2-6---------|---7---7---7------|-9-6-----------|
|-----------5-2-2-2-|-0---0---0----3-0-|-----8----8----|
|
|-------------------|------------------|---------------|
|-------------------|------------------|---------------|
|-------------------|---9---9---9------|---------------|
|-------------------|------------------|-------10----7-|
|--9--6-9-6-9-6-9-6-|-7---7---7---10-7-|-9-6------0----|
|-------------------|------------------|-----8---------|


 .=150
 9/8
|---------------------------------------------------||
|--------------------------------------------------o||
|---------------------------------------------------||
|---------------------------------------------1-----||
|--2----4-------[7]-------------4-------2-----2----o||
|--0----2-----------------------2-------0-----------||
|
|----------------------12-----------------12--------||
|------------12-----13----13-12------13------12----o||
|---------12----------------------14----------------||
|---------------------------------------------------||
|-10-14--------------------------------------------o||
|---------------------------------------------------||


 4/4
|----------|----------------|-----*|
|----------|----------------|-----*|
|----------|----------------|-----*|
|----------|----------------|-----*|
|-3--------|-(3)--2--2------|-----*|
|-1--------|-(1)--0--0------|-----*|
|
|----------|----------------|-----*|
|----------|----------------|-----*|
|----------|----------------|-----*|
|----------|---------2------|-----*|
|-3--------|-(3)--2---------|-----*|
|-1--------|-(1)--0--0------|-----*|








02 - The Stillborn One - ==================================================================

RIFF 1 Gtr. one (0:00) = 4 times
|-------------------------------------------------------------------
|-------------------------------------------------------------------
|-3-/-4-\-3---------------------------------------------------------
|--------------------/5---4-----------------------------------------
|-1-/-2-\-1----ph-------7----1--/--2-\-1--------ph-1-/-2-\-1----1-2-
|------------0-2-/-3---------2--/--3-\-2--0-2-3-2--2-/-3-\-2--0-----
             .          . .               . . .               . . .
RIFF 1 Gtr. two (0:00) = 4 times
|-------------------------------------------------------------------
|-------------------------------------------------------------------
|-------------------------------------------------------------------
|---------------------5---------------------------------------------
|-1-/-2-\-1----ph------------1--/--2-\-1--------ph-1-/-2-\-1--------
|-2-/-3-\-2--0-6-/-7----8-7--2--/--3-\-2--0-2-3-2--2-/-3-\-2--0-2-3-
             .          . .               . . .               . . .
RIFF 1 Gtr. one continue
 ------------------------------|-1&3&4-|----only-second-time-----||
 ------------------------------|--time-|-------------------------||
 ------------------------------|-11----|-------------------------||
 -5--ph------------------------|-------|-------------------------||
 ----7-\-6--1--/--2-\-1----1-2-|-9-----|-1/2h5p2\1/2/1-----------||
 -----------2--/--3-\-2--0-----|-------|--------------h3\2/3\2p0-||
                         . . .
RIFF 1 Gtr. two continue
 ------------------------------|-1&3&4-|------only-second-time------||
 ------------------------------|--time-|----------------------------||
 ------------------------------|-------|----------------------------||
 -5--ph------------------------|-4-----|-8/9h12p9\8/9\8-------------||
 ----7-\-6--1--/--2-\-1--------|-------|---------------h10\9/10\9p7-||
 -----------2--/--3-\-2--0-2-3-|-2-----|----------------------------||
                         . . .





RIFF 2 Gtr. one (0:45) = 2 times
|------------------------------------------------------------------------
|------------------------------------------------------------------------
|------------------------------------------------------------------------
|-3----------------3------2---2---6------555222255-6----------------5----
|-------------------------2---2---------------------------10-9------2----
|-1------000000000-1------0---0---4----------------4---------7----3-3----
         .........        .   .          .........        .       .
RIFF 2 Gtr. two (0:45) = 2 times
|------------------------------------------------------------------------
|------------------------------------------------------------------------
|------------------------------------------------------------------------
|-3----------------3------2---2---3----------------3---------4------5----
|-------------------------2---2---------------------------2--2----2-2----
|-1------000000000-1------0---0---1------000000000-1------0-------0-3----
         .........        .   .          .........        .       .
RIFF 2 Gtr. one continue
 ------------------------------------------------------------------||
 ------------------------------------------------------------------||
 --------------------------------------------------------------4-3-||
 -3----------------3------2---2---6------555222255-6---------------||
 -------------------------2---2-----------------------------2--2-1-||
 -1------000000000-1------0---0---4----------------4--3-3-3-0------||
         .........        .   .          .........    . . .
RIFF 2 Gtr. two continue
 ------------------------------------------------------------------||
 ------------------------------------------------------------------||
 ------------------------------------------------------------------||
 -3----------------3------2---2---3----------------6--------5--5-2-||
 -------------------------2---2------------------------------------||
 -1------000000000-1------0---0---1------000000000-4--0-0-0-3--3-2-||
         .........        .   .          .........    . . .

RIFF 3 GTR. one (1:05) = 4 times
|----------------------------------------------------
|----------------------------------------------------
|----------------------------------------------------
|-----5-----4-------5----4-------5---4-/-5---~-------
|-----7-----6-------7----6-------7---6-/-7-/-10------
|-0-------------0------------0-----------------------
  .   .     .   .   .    .   .   .
RIFF 4 GTR. two (1:05) = 4 times
|----------------------------------------------------
|----------------------------------------------------
|--------------------------------------------9-------
|------------------------------------------------8---
|-7---1010106---10--7----999-777-10--6-/-7-----------
|----------------------------------------------------
  .   . . . .   .   .    ... ... .
RIFF 3 GTR. one continue
 ----------------------------------------------------||
 ----------------------------------------------------||
 --------------------------------------------5-/-8---||
 -----5-----4-------5----4-------5---4-/-5-----------||
 -----7-----6-------7----6-------7---6-/-7-----------||
 -0-------------0------------0-----------------------||
  .   .     .   .   .    .   .   .

RIFF 4 GTR. two continue
 ----------------------------------------------------||
 ----------------------------------------------------||
 ----------------------------------------------------||
 --------------------------------------------~-------||
 -7---1010106---10--7----999-777-10--6-/-7-/-8-------||
 ----------------------------------------------------||
  .   . . . .   .   .    ... ... .
RIFF 5 GTR. one (1:35) = 3 times
|-only--|--------------------------------------||
|-first-|-------0------------------------------||
|-time--|----3----3-------------------0---0----||
|-2-----|-5-------------------------4---4------||
|-2-----|-------------------------2------------||
|-0---0-|--------------------------------------||

RIFF 5 GTR. two (1:35) = 3 times
|----------------------------------------------||
|----------------------------------------------||
|----------------------------------------------||
|-2--------------------2-----------------------||
|-2--------------------2-----------------------||
|-0--------------------0-----------------------||

RIFF 5 GTR. three (1:35)
|---t15-bh-br---bh-br--------------------------||
|----------------------------------------------||
|----------------------------------------------||
|----------------------------------------------||
|----------------------------------------------||
|----------------------------------------------||

RIFF 5 GTR. four (1:35)
|-------------------------t14-bh-br---bh-br----||
|----------------------------------------------||
|----------------------------------------------||
|----------------------------------------------||
|----------------------------------------------||
|----------------------------------------------||

RIFF 6 GTR. one (1:57)
|-------------------------------------------------------------------------|
|-------------------------------------------------------------------------|
|-----------------------------------------------------------------------ph|
|---5---5-4---4-----5---5---9-8---8---7----5---5-4---4-----5---5---9\8---8|
|-7---7-----------6---7---7-----6---6----7---7-----------6---7---7-----7--|
|0----------0---0-----------------------0----------0---0------------------|
 ..   .     .   .     .   . .   .   .   . .  .     .   .     .   .     .
RIFF 6 GTR. two (1:57)
|-------------------------------------------------------------------------|
|-------------------------------------------------------------------------|
|---------------------------------ph------------------------------------ph|
|---------------------------------7--------------------------------------8|
|2----------------6-------------------------------------------------------|
|0------------------------------------------------------------------------|
RIFF 6 GTR. Both GTR. (2:02)
|-------------------------------------------------------------------------|
|-------------------------------------------------------------------------|
|-----------------------------------------------------------------------ph|
|---5---5-4---4-----5---5---9-8---8---7----5---5-4---4-----5---5---9\8---8|
|-7---7-----------6---7---7-----6---6----7---7-----------6---7---7-----7--|
|0----------0---0-----------------------0----------0---0------------------|
 ..   .     .   .     .   . .   .   .   . .  .     .   .     .   .     .

RIFF 7 Gtr. one (2:07)
|-----------------------------------------
|-----------------------------------------
|-----------------------------------------
|---------------4-------5-5-----5---5---4-
|---4---------------6-------7-------------
|-0---3-0-3-2-2---2---3-------3---3---2---
  . . . . . . .   .   .     . .   .   .
RIFF 7 Gtr. two (2:07)
|-----------------------------------------
|-----------------------------------------
|-----------------------------------------
|---------------------5---5-----8---8---7-
|---4---------------6---7---7-------------
|-0---3-0-3-2-2-2-2-----------7---6---5---
  . . . . . . . . .     .   . .   .   .
RIFF 7 Gtr. one continue
 -----------------------------------------||
 -----------------------------------------||
 -------------------------------6---6-----||
 ---------------4-------5-5-------------5-||
 ---4---------------6-------7-----4---4---||
 -0---3-0-3-2-2---2---3-------3-----------||
  . . . . . . .   .   .     . .   .   .
RIFF 7 Gtr. two continue
 -----------------------------------------||
 -----------------------------------------||
 ---------------------------------------9-||
 ---------------------5---5-----8---8-----||
 ---4---------------6---7---7---------7---||
 -0---3-0-3-2-2-2-2-----------7---6-------||
  . . . . . . . . .     .   . .   .   .

RIFF 7 Gtr. one (2:12)
Same as before only change on () marked note
|-----------------------------------------
|-----------------------------------------
|-----------------------------------------
|---------------4--(4)--5-5-----5---5---4-
|---4-----------------------7-------------
|-0---3-0-3-2-2---2---3-------3---3---2---
  . . . . . . .   .   .     . .   .   .
RIFF 7 Gtr. two (2:12)
Same as before...
|-----------------------------------------
|-----------------------------------------
|-----------------------------------------
|---------------------5---5-----8---8---7-
|---4---------------6---7---7-------------
|-0---3-0-3-2-2-2-2-----------7---6---5---
  . . . . . . . . .     .   . .   .   .
RIFF 7 Gtr. one continue
 -----------------------------------------||
 -----------------------------------------||
 -------------------------------6---6-----||
 ---------------4-------5-5-------------5-||
 ---4---------------6-------7-----4---4---||
 -0---3-0-3-2-2---2---3-------3-----------||
  . . . . . . .   .   .     . .   .   .




RIFF 7 Gtr. two continue
 -----------------------------------------||
 -----------------------------------------||
 ---------------------------------------9-||
 ---------------------5---5-----8---8-----||
 ---4---------------6---7---7---------7---||
 -0---3-0-3-2-2-2-2-----------7---6-------||
  . . . . . . . . .     .   . .   .   .

RIFF 8 Break Gtr. one (2:17)
|-------------------------------------------||
|-------------------------------------------||
|-------------------------------------------||
|--------------------7h9p8-9-8-9---7--------||
|--------------------------------9---10-7h9-||
|-------------------------------------------||
                           . . . . . .
RIFF 8 Break Gtr. two (2:17)
|-------------------------------------------||
|-------------------------------------------||
|-------------------------------------------||
|-9p8-9-8-9---7-----------------------------||
|-----------9---10-7h9----------------------||
|----------------------7p6-7-6-7-2-5-3--0h2-||
      . . . . . .          . . . . . .

RIFF 9 Gtr. one (2:20) = 2 times
|-----------------------------------------------------------------
|-----------------------------------------------------------------
|---------------------5\4-2h4---4---------------------------------
|-----3---5-----2-------------5-------3-------6-----------5---2---
|-------------------------------------------------7---7-----------
|-1-1---1---1-4---0-0-------------1-1---1-1-1---4---0---0---0---0-
  . .   .   . .   . .             . .   . . .   .   .   .   .   .
RIFF 9 Gtr. two (2:20) = 2 times
|-----------------------------------------------------------------
|-----------------------------0-----------------------------------
|---------------------------0---0---------------------------------
|-----3---5-----2---------------------3-------6-----------5---2---
|---------------------3\2-0-----------------------7---7-----------
|-1-1---1---1-4---0-0-------------1-1---1-1-1---4---0---0---0---0-
  . .   .   . .   . .             . .   . . .   .   .   .   .   .

RIFF 9 Gtr. one continue
 -------------------------------------------------------------||
 -------------------------------------------------------------||
 ---------------------------4---5-----------------------------||
 -----3---5-----2---------------------3---5--------------4----||
 ---------------------6\5-2---3-------------------------------||
 -1-1---1---1-4---0-0-------------1-1---1---1-4-0--0--3--2----||
  . .   .   . .   . .     .   .   . .   .   . . .  .  .
RIFF 9 Gtr. two continue
 -----------------------------0-0-----------------------------||
 -------------------------------------------------------------||
 ---------------------------0---------------------------------||
 -----3---5-----2---------4-----------3---5-----------5--4----||
 ---------------------3\2--------------------------3----------||
 -1-1---1---1-4---0-0-------------1-1---1---1-4-0--------2----||
  . .   .   . .   . .             . .   .   . . .  .  .



RIFF 10 Gtr. one (2:36)
|------------------------------------------------------------------
|------------------------------------------------------------------
|-------------------------------------------------------ph----ph---
|-----3---------------5---2-----6-----3-------5---------7-----9p6--
|-------------------------------------------------7--8-----8-------
|-1-1---1-1-1-1-1-1-1---0---0-4---3\1---1-1-1---0------------------
  . .   . . . . . . .   .   . .         . . .   . .  .     .
RIFF 10 Gtr. two (2:36)
|------------------------------------------------------------------
|------------------------------------------------------------------
|------------------------------------------------------------------
|-----3---------------5---2-----6-----3-------5---------ph----ph---
|-------------------------------------------------------5-----5p2--
|-1-1---1-1-1-1-1-1-1---0---0-4---3\1---1-1-1---0-0--1-----1-------
  . .   . . . . . . .   .   . .         . . .   . .  .     .
RIFF 10 Gtr. one continue
 -----------------------------------------------------------||
 -----------------------------------------------------------||
 -----------------------------------------------------------||
 -----3---------------5---2-----6-----3-------5-------------||
 -------------------------------------------------------~---||
 -1-1---1-1-1-1-1-1-1---0---0-4---3\1---1-1-1---1/3h4h7p3---||
  . .   . . . . . . .   .   . .         . . .
RIFF 10 Gtr. two continue
 -----------------------------------------------------------||
 -----------------------------------------------------------||
 -------------------------------------------------------~---||
 -----3---------------5---2-----6-----3-------5-------2/5---||
 -----------------------------------------------------------||
 -1-1---1-1-1-1-1-1-1---0---0-4---3\1---1-1-1---1/3h7-------||
  . .   . . . . . . .   .   . .         . . .


RIFF 8b BREAK Gtr. one (2:43)
|----------------------||
|----------------------||
|----------------------||
|----------------------||
|----------------------||
|-7p6-7-6-7-2-5-3--0h2-||
      . . . . . .

RIFF 8b BREAK Gtr. two (2:43)
|----------------------||
|----------------------||
|----------------------||
|-9p8-9-8-9---7--------||
|-----------9---10-7h9-||
|----------------------||
      . . . . . .


again RIFF 9 Gtr. one (2:45) = 2 times
|-----------------------------------------------------------------
|-----------------------------------------------------------------
|---------------------5\4-2h4---4---------------------------------
|-----3---5-----2-------------5-------3-------6-----------5---2---
|-------------------------------------------------7---7-----------
|-1-1---1---1-4---0-0-------------1-1---1-1-1---4---0---0---0---0-
  . .   .   . .   . .             . .   . . .   .   .   .   .   .


again RIFF 9 Gtr. two (2:45) = 2 times
|-----------------------------------------------------------------
|-----------------------------0-----------------------------------
|---------------------------0---0---------------------------------
|-----3---5-----2---------------------3-------6-----------5---2---
|---------------------3\2-0-----------------------7---7-----------
|-1-1---1---1-4---0-0-------------1-1---1-1-1---4---0---0---0---0-
  . .   .   . .   . .             . .   . . .   .   .   .   .   .
RIFF 9 Gtr. one continue
 -------------------------------------------------------------||
 -------------------------------------------------------------||
 ---------------------------4---5-----------------------------||
 -----3---5-----2---------------------3---5--------------4----||
 ---------------------6\5-2---3-------------------------------||
 -1-1---1---1-4---0-0-------------1-1---1---1-4-0--0--3--2----||
  . .   .   . .   . .     .   .   . .   .   . . .  .  .
RIFF 9 Gtr. two continue
 -----------------------------0-0-----------------------------||
 -------------------------------------------------------------||
 ---------------------------0---------------------------------||
 -----3---5-----2---------4-----------3---5-----------5--4----||
 ---------------------3\2--------------------------3----------||
 -1-1---1---1-4---0-0-------------1-1---1---1-4-0--------2----||
  . .   .   . .   . .             . .   .   . . .  .  .

Intro to Solo I both Gtr. (3:01)
|-------------------------------
|-------------------------------
|-------------------------------
|-3-----------------------------
|-3-----------------------------
|-1-----------------------------

Solo I

Rhythm Gtr. one RIFF 11 = 4 times
|-----------------------------------------------------------------||
|-----------------------------------------------------------------||
|-4---------------------------------------------------------------||
|-4----------------------------4----------------------------4-----||
|-2-----------------------2----4----------------------------4-----||
|-------------------------3----2----------------------------2-----||

Rhythm Gtr. one RIFF 11 = 4 times
|-----------------------------------------------------------------||
|----------0------------------------------------------------------||
|-------0-----------0-------------------0----------------0--------||
|----4----------------4--------------4-----------4----------------||
|-2-------------------------------4-------------------4-----------||
|------------------------------2-------------------2--------------||
                               .  .                .  .


Intro to Solo II Gtr. one (3:37)
|------------------------------|
|------------------------------|
|-------5----------------------|
|-------5------5--------8------|
|-~-----3----2--------6--------|
|-2--0-------------------------|
             .        .


Intro to Solo II Gtr. two (3:37)
|------------------------------|
|------------------------------|
|-----------------------3------|
|-------5------5--------4------|
|-~-----3----2--------6--------|
|-2--0--3----------------------|
             .        .

Solo II


Rhythm Both Gtr. RIFF 12 (3:39) = 2 times
|-------------------------------------------------------------------
|-------------------------------------------------------------------
|-------------------------------------------------------------------
|-----5----------------9-------10-------4-------4-------5-------4---
|---7---7---7h10p7---7---7---7----7---------------------------------
|-0-------0--------0-------0--------0-2---2-0-2---2-0-3---3-0-2---2-
  . .   . .        . .   . . .    . . .   . . .   . . .   . . .   .

 ----------------------------------------------------------------||
 ----------------------------------------------------------------||
 ----------------------------------------------------------------||
 --------------5-------10-------9-------4----------5-------7-----||
 ---7h10p7---7---7---7----7---7---7-------~----------------------||
 -0--------0-------0--------0-------0-2---2------3---3-3-3---3-3-||
  .        . .   . . .    . . .   . . .          .   . . .   . .

Rhythm Both Gtr. RIFF 13 (3:55) = 2 times
The () marked note is played by guitar one
|-------------------------------------------------------------
|-------------------------------------------------------------
|-----------------------11------------------------------------
|-----------------------------------------4-------4-------5---
|---7h10p7h9-----7h10p7h9------3~-----------------------------
|-0----------0-0--------------(0ph)---0-2---2-0-2---2-0-3---3-
  .          . .                      . .   . . .   . . .   .
 -----------------------------------------------------------------||
 -----------------------------------------------------------------||
 -----------------------11-----7----------------------------------||
 -----------------------------------------4-----------5-----------||
 ---7h10p7h9-----7h10p7h9------5----------------------------------||
 -0----------0-0----------------------------2-2-2-2-2---3-3-3-3-3-||
  .          . .                            . . . . .   . . . . .

Solo Outro Gtr. 1 (4:11)
|---------------------|
|---------------------|
|---------------------|
|-2--------/-9--------|
|-2--------/-7--------|
|-0-------------------|

Solo Outro Gtr. 1 (4:11)
|---------------------|
|---------------------|
|---------------------|
|-2--------/-9--------|
|-2--------/-10-------|
|-0-------------------|


RIFF 1 Gtr. one (4:14) ending
|---------------------------------------------------||
|---------------------------------------------------||
|-3-/-4-\-3-----------------------------------------||
|--------------------/5---4-------------------------||
|-1-/-2-\-1----ph-------7----1--/--2-\-1--------1---||
|------------0-2-/-3---------2--/--3-\-2--0-2-3-2---||
             .          . .               . . .
RIFF 1 Gtr. two (4:14) ending
|---------------------------------------------------||
|---------------------------------------------------||
|---------------------------------------------------||
|---------------------5-----------------------------||
|-1-/-2-\-1----ph------------1--/--2-\-1--------1---||
|-2-/-3-\-2--0-6-/-7----8-7--2--/--3-\-2--0-2-3-2---||
             .          . .               . . .












03 - Ignominious & Pale - =================================================================


Q=230
 4/4
  Gtr I
  PM------|   PM    PM----------|     ~   PM|     PM    PM|   PM
  S S S S E E E E E S S   S S S S  E  E E E E E   E E E E E E E E
|-----------------------|-----------------------|-----------------|
|-----------------------|-----------------------|-----------------|
|-----------4---2S1-----|-----------------------|---5S7-----7-----|
|-3-3-3-3-3---3---------|---------[5]S4-6-----9-|---------------7-|
|-----------------------|-----------------------|-----------------|
|-------------------0-0-|-0-0-3-3---------4-4---|-4-----5-5---5---|
|
| Gtr II
| PM------|   PM    PM|               ~   PM|     PM    PM|   PM
| S S S S E E E E E S S   S S S S  E  E E E E E   E E E E E E E E
|-----------------------|-----------------------|-----------------|
|-----------------------|-----------------------|-----------------|
|-----------------------|-----------------------|---2h4-----4---5-|
|-3-3-3-3-3-5-3-3S2-----|---------------3-----5-|-----------------|
|-----------------------|-----------------------|-------2-2---2---|
|-------------------0-0-|-0-0-3-3-[3]S2---1-1---|-1---------------|


  Gtr I
  PM------|   PM    PM----------|       PM|     PM    PM| ~~
  S S S S E E E E E S S   S S S S E E E E E E   E E E E E Q.
|-----------------------|-------------1-----3-|-----------------|
|-----------------------|---------------------|-----------------|
|-----------4---2S1-----|---------------------|-----------------|
|-----------------------|---------------3-3---|-3---------------|
|-----------------------|---------------------|---3h5-0-2-------|
|-1-1-1-1-1---1-----0-0-|-0-0-3-3-3S2---------|-----------3-----|
|

| Gtr II
| PM------|   PM    PM|                 PM|     PM    PM| ~~
| S S S S E E E E E S S   S S S S E E E E E E   E E E E E Q.
|-----------------------|---------------------|-----------------|
|-----------------------|---------------------|-----------------|
|-----------------------|---------------------|---2h4-----------|
|-----------5---3S2-----|-------------3-----5-|-----------------|
|-----------------------|---------------------|-------0-2-------|
|-1-1-1-1-1---1-----0-0-|-0-0-3-3-3S2---1-1---|-1---------3-----|


 Riff 2 (0:06)
  Gtr I
    PM    PM  PM----|     ~~~~ PM                              PM
  E E E E E E E E    E    E  E E  E E  E S S   S S E  E E  E E E E
|-----------------|--------------------------|---------------------|
|-----------------|--------------------------|---------------------|
|-----------------|--------------------------|-------10---12-------|
|-----------------|--------------------------|---------------------|
|-7---7-3---7---7-|--8--[10]-7---10p7h10-8-8-|-8-8-8----8----7---7-|
|---0-----4---0---|------------0-------------|-----------------0---|
|
| Gtr II
|   PM    PM  PM|    ~~~~~~~~  PM   PM                         PM
| E E E E E E E E    E    E  E E  E E  E S S   S S E  E E  E E E E
|-----------------|--------------------------|---------------------|
|-----------------|--------------------------|---------------------|
|-----------------|--------------------------|---------------------|
|-----------------|--------------------9-----|--------5----3-------|
|-7---7-3---7---7-|-[8]-[10]-7----7----------|---------------7---7-|
|---0-----4---0---|------------0----8----1-1-|-1-1-1----1------0---|


                        5/4
  Gtr I
    PM  PM--|     ~~~~   PM        PM------|    PM
  E E E E E  E    E  E   E  E E  E S S S S E  E E  E
|----------------------|-----------------------------|
|----------------------|-----------------------------|
|----------------------|---------------------12---14-|
|----------------------|-----------------------------|
|-3---7---7--8--[10]-7-|---10p7h10-9-9-9-9-9----9----|
|---4---0--------------|-0---------------------------|
|
| Gtr II
|   PM  PM|  ~~~~~~~~    PM   PM   PM------|    PM
| E E E E E  E    E  E   E  E E  E S S S S E  E E  E
|----------------------|-----------------------------|
|----------------------|-----------------------------|
|----------------------|-----------------------------|
|----------------------|----------------------5----7-|
|-3---7---7-[8]-[10]-7-|----7----5-------------------|
|---4---0--------------|-0----8----3-3-3-3-3----3----|


 4/4
  Gtr I
  PM------|   PM    PM----------|     ~   PM|     PM    PM|   PM
  S S S S E E E E E S S   S S S S  E  E E E E E   E E E E E E E E
|-----------------------|-----------------------|-----------------|
|-----------------------|-----------------------|-----------------|
|-----------4---2S1-----|-----------------------|---5S7-----7-----|
|-3-3-3-3-3---3---------|---------[5]S4-6-----9-|---------------7-|
|-----------------------|-----------------------|-----------------|
|-------------------0-0-|-0-0-3-3---------4-4---|-4-----5-5---5---|
|
| Gtr II
| PM------|   PM    PM|               ~   PM|     PM    PM|   PM
| S S S S E E E E E S S   S S S S  E  E E E E E   E E E E E E E E
|-----------------------|-----------------------|-----------------|
|-----------------------|-----------------------|-----------------|
|-----------------------|-----------------------|---2h4-----4---5-|
|-----------5---3S2-----|---------------3-----5-|-----------------|
|-----------------------|-----------------------|-------2-2---2---|
|-1-1-1-1-1---1-----0-0-|-0-0-3-3-[3]S2---1-1---|-1---------------|


  Gtr I
  PM------|   PM    PM----------|       PM|     PM    PM| ~~
  S S S S E E E E E S S   S S S S E E E E E E   E E E E E Q.
|-----------------------|-------------1-----3-|-----------------|
|-----------------------|---------------------|-----------------|
|-----------4---2S1-----|---------------------|-----------------|
|-----------------------|---------------3-3---|-3---------------|
|-----------------------|---------------------|---3h5-0-2-------|
|-1-1-1-1-1---1-----0-0-|-0-0-3-3-3S2---------|-----------3-----|
|
| Gtr II
| PM------|   PM    PM|                 PM|     PM    PM| ~~
| S S S S E E E E E S S   S S S S E E E E E E   E E E E E Q.
|-----------------------|---------------------|-----------------|
|-----------------------|---------------------|-----------------|
|-----------------------|---------------------|---2h4-----------|
|-----------5---3S2-----|-------------3-----5-|-----------------|
|-----------------------|---------------------|-------0-2-------|
|-1-1-1-1-1---1-----0-0-|-0-0-3-3-3S2---1-1---|-1---------3-----|


 5/4
  Gtr I
                        ~~
  Q  Q  H.        +Q    W
|---------------|------------|
|---------------|------------|
|---------------|------------|
|-3-----2-------|-(2)--------|
|-3-----2-------|-(2)--/6----|
|-1-----0-------|-(0)--------|
|
| Gtr II
|                       ~~
| Q  Q  H.        +Q    W
|---------------|------------|
|---------------|------------|
|---------------|------------|
|-3-----2-------|-(2)--------|
|-3-----2-------|-(2)--/3----|
|-1-----0-------|-(0)--------|


   Riff 3 (0:20)
   4/4
    Gtr I
      PM|   PM|   PM----|   PM|   PM----|
    E E E E E E E E   E E E E E E S S S S
||------------------|---------------------|
||o-------------4---|---------------------|
||------------------|---------------------|
||--2-----5-------1-|-2-1-------3---------|
||o-----------------|-----3---------------|
||----0-0---0-0-----|-------0-1---1-1-1-1-|
|
|   Gtr II
|                                 PM----|
|   E E E E E E E E   E E E E E E S S S S
||------------------|---------------------|
||o-----------------|---------------------|
||--------------5---|---------------------|
||--2-----2---------|-2---1-----3---------|
||o-----------3---3-|---------------------|
||----0-0---0-------|---0---0-1---1-1-1-1-|


    PM|   PM|       PM------|   PM    PM
  E E E E E E E E   S S S S E E E E E E
|-----------------|---------------------|
|-----------------|---------------------|
|-----------------|---------------------|
|-2-----5-----6p5-|-----------3---5-2---|
|-----------------|---------------------|
|---0-0---0-0-----|-1-1-1-1-1---1-----0-|
|
|   PM|   PM|       PM------|   PM    PM
| E E E E E E E E   S S S S E E E E E E
|-----------------|---------------------|
|-----------------|---------------------|
|-----------------|---------------------|
|-2-----2-----6p5-|-----------3---5-2---|
|-----------------|---------------------|
|---0-0---0-0-----|-1-1-1-1-1---1-----0-|


                                                                   2/4
  Gtr I
  PM  PM|   PM  PM    PM|   PM----|   PM--|   PM  PM------------------|   PM
  E E E E E E E E   E E E E S S S S E E   E E E E S S S S S S S S   S S E E E
|-----------------|---------------------|-------------------------|-----3---5-|
|---------4-------|---------------------|-------------------------|-----------|
|-----------------|---------------------|-------------------------|-----------|
|---5-------1-2-1-|-------3---------2---|---5---5-5-5-4-4-4-4-4-4-|-4-4---4---|
|-----------------|-3-------------------|-------------------------|-----------|
|-0---0-0---------|---1-0---1-1-1-1---0-|-0---0-------------------|-----------|
|
| Gtr II
| PM  PM|   PM  PM    PM|   PM----|   PM
| E E E E E E E E   E E E E S S S S E E   E E E E E   E   S S S S   E   E E E
|-----------------|---------------------|-------------------------|-----------|
|-----------------|---------------------|-------------------------|-----------|
|---------5-------|---------------------|-------------------------|-----------|
|---2---------2---|-1-----3---------2---|---2-----5S==6-----------|-----3---5-|
|-------3---3-----|---------------------|-------------------------|-----------|
|-0---0---------0-|---0-1---1-1-1-1---0-|-0---0-0---------1-1-1-1-|-1-----1---|


 4/4
  Gtr I
  PM------|   PM    PM----------|     ~   PM|     PM    PM|   PM
  S S S S E E E E E S S   S S S S  E  E E E E E   E E E E E E E E
|-----------------------|-----------------------|-----------------|
|-----------------------|-----------------------|-----------------|
|-----------4---2S1-----|-----------------------|---5S7-----7-----|
|-3-3-3-3-3---3---------|---------[5]S4-6-----9-|---------------7-|
|-----------------------|-----------------------|-----------------|
|-------------------0-0-|-0-0-3-3---------4-4---|-4-----5-5---5---|
|
| Gtr II
| PM------|   PM    PM|               ~   PM|     PM    PM|   PM
| S S S S E E E E E S S   S S S S  E  E E E E E   E E E E E E E E
|-----------------------|-----------------------|-----------------|
|-----------------------|-----------------------|-----------------|
|-----------------------|-----------------------|---2h4-----4---5-|
|-----------5---3S2-----|---------------3-----5-|-----------------|
|-----------------------|-----------------------|-------2-2---2---|
|-1-1-1-1-1---1-----0-0-|-0-0-3-3-[3]S2---1-1---|-1---------------|


                                                                2/4
  Gtr I
  PM------|   PM    PM----------|       PM|     PM    PM| ~~
  S S S S E E E E E S S   S S S S E E E E E E   E E E E E Q.     Q  Q
|-----------------------|-------------1-----3-|----------------|--------||
|-----------------------|---------------------|----------------|-------o||
|-----------4---2S1-----|---------------------|----------------|--------||
|-----------------------|---------------3-3---|-3--------------|-3------||
|-----------------------|---------------------|---3h5-0-2------|-3-----o||
|-1-1-1-1-1---1-----0-0-|-0-0-3-3-3S2---------|-----------3----|-1------||
|
| Gtr II
| PM------|   PM    PM|                 PM|     PM    PM| ~~
| S S S S E E E E E S S   S S S S E E E E E E   E E E E E Q.     Q  Q
|-----------------------|---------------------|----------------|--------||
|-----------------------|---------------------|----------------|-------o||
|-----------------------|---------------------|---2h4----------|--------||
|-----------5---3S2-----|-------------3-----5-|----------------|-3------||
|-----------------------|---------------------|-------0-2------|-3-----o||
|-1-1-1-1-1---1-----0-0-|-0-0-3-3-3S2---1-1---|-1---------3----|-1------||


 Riff 4 (0:49)
 4/4
  Gtr I
             ~
  W          W
|----------|------|
|----------|------|
|----------|------|
|-2--------|------|
|-2--------|-6----|
|-0--------|------|
|
| Gtr II
|            ~
| W          W
|----------|------|
|----------|------|
|----------|------|
|-2--------|------|
|-2--------|-3----|
|-0--------|------|


  Q=190
  Gtr I
                     PM   PM                                            PM
  Q   H.             E  E E  E Q   Q     E E +H     Q     +H.           E E
|------------------|-------------------|----------------|-------------------|
|------------------|-------------------|----------------|-------------------|
|------------------|-------------------|----------------|-----------------5-|
|-2----------------|---10---10---------|---3-(3)----2---|-(2)---------------|
|-2----------------|------7------------|---3-(3)----2---|-(2)-----------3---|
|-0----------------|-8---------0-------|---1-(1)----0---|-(0)---------------|
|
| Gtr II
|   PM|    PM|   PM--|    PM     PM|     PM           PM--|     PM|   PM|
| E E E  E E E E E   E  E E  E E E E E   E E +H     E E    E  E E E E E E E
|------------------|-------------------|----------------|-------------------|
|------------------|-----------5-------|----------------|-------------------|
|------------------|----5----5---------|----------------|-----------------5-|
|-2------2-----2---|-------------------|---3-(3)----2---|-----2-----2-------|
|------------------|-3----3----------6-|---3-(3)--------|---------------3---|
|---0-0----0-0---0-|-------------0-0---|-0-1-(1)------0-|--0----0-0---0-----|


  Gtr I
  PM    PM  PM  PM------------|   PM|   PM--|   PM    PM|     PM           PM
  E E E E E E E E   S S S S S S E E E E E   E E E E E E E E   E E +H     E E
|-----------------|-----------------------|-----------------|-----------------|
|-----------------|-----------------------|---------5-------|-----------------|
|---5-4---4-------|-----------------------|---5---5---------|-----------------|
|-------------3---|-------------5-----2---|-----------------|---3-(3)----2----|
|-3-----2---------|-----------------------|-3---3---------6-|---3-(3)---------|
|-----------1---1-|-3-3-3-3-4-4---0-0---0-|-----------0-0---|-0-1-(1)------0--|
|
| Gtr II
| PM    PM  PM  PM------------|   PM|   PM--|   PM    PM|     PM           PM
| E E E E E E E E   S S S S S S E E E E E   E E E E E E E E   E E +H     E E
|-----------------|-----------------------|-----------------|-----------------|
|-----------------|-----------------------|---------5-------|-----------------|
|---5-4---4-------|-----------------------|---5---5---------|-----------------|
|-------------3---|-------------2-----2---|-----------------|---3-(3)----2----|
|-3-----2---------|-----------------------|-3---3---------6-|---3-(3)---------|
|-----------1---1-|-0-0-0-0-0-0---0-0---0-|-----------0-0---|-0-1-(1)------0--|


                                                     2/4
    Gtr I
  PM  PM|   PM|     PM    PM  PM  PM       ~~~~~~~~~~~~~~~
  E E E E E E E E   E E E E E E E E   Q.   E +H       +H
|-----------------|-----------------|---------------|--------|
|-----------------|-----------------|---------------|--------|
|---------------5-|---5-4---4-------|------8-(8)----|-(8)----|
|---6-----5-------|-------------3---|-2-------------|--------|
|-------------3---|-3-----2---------|-2----6-(6)----|-(6)----|
|-0---0-0---0-----|-----------1---1-|-0-------------|--------|
|
|   Gtr II
|   PM|   PM|   PM--|     PM  PM  PM       ~~~~~~~~~~~~~~~
| E E E E E E E E   E E E E E E E E   Q.   E +H       +H
|-----------------|-----------------|---------------|--------|
|-----------------|-----------------|---------------|--------|
|-----------------|---5-4---4-------|------5-(5)----|-(5)----|
|-2-----2-----2---|-------------3---|-2-------------|--------|
|-----------------|-3-----2---------|-2----3-(3)----|-(3)----|
|---0-0---0-0---0-|-----------1---1-|-0-------------|--------|


 4/4
  Gtr I
    PM|   PM|   PM--|   PM    PM|     PM           PM--|   PM|   PM|
  E E E E E E E E   E E E E E E E E   E E +H     E E   E E E E E E E E
|-----------------|-----------------|----------------|------------------|
|-----------------|---------5-------|----------------|------------------|
|-----------------|---5---5---------|----------------|---------------5--|
|-2-----2-----2---|-----------------|---3-(3)----2---|---6-----5--------|
|-----------------|-3---3---------6-|---3-(3)--------|-------------3----|
|---0-0---0-0---0-|-----------0-0---|-0-1-(1)------0-|-0---0-0---0------|
|
| Gtr II
|   PM|   PM|   PM--|   PM    PM|     PM           PM--|   PM|   PM|
| E E E E E E E E   E E E E E E E E   E E +H     E E   E E E E E E E E
|-----------------|-----------------|----------------|------------------|
|-----------------|---------5-------|----------------|------------------|
|-----------------|---5---5---------|----------------|---------------5--|
|-2-----2-----2---|-----------------|---3-(3)----2---|---2-----2--------|
|-----------------|-3---3---------6-|---3-(3)--------|-------------3----|
|---0-0---0-0---0-|-----------0-0---|-0-1-(1)------0-|-0---0-0---0------|


  Gtr I
  PM    PM  PM  PM------------|   PM|   PM--|   PM    PM|     PM           PM
  E E E E E E E E   S S S S S S E E E E E   E E E E E E E E   E E +H     E E
|-----------------|-----------------------|-----------------|-----------------|
|-----------------|-----------------------|---------5-------|-----------------|
|---5-4---4-------|-----------------------|---5---5---------|-----------------|
|-------------3---|-------------5-----2---|-----------------|---3-(3)----2----|
|-3-----2---------|-----------------------|-3---3---------6-|---3-(3)---------|
|-----------1---1-|-3-3-3-3-4-4---0-0---0-|-----------0-0---|-0-1-(1)------0--|
|
| Gtr II
| PM    PM  PM  PM------------|   PM|   PM--|   PM    PM|     PM           PM
| E E E E E E E E   S S S S S S E E E E E   E E E E E E E E   E E +H     E E
|-----------------|-----------------------|-----------------|-----------------|
|-----------------|-----------------------|---------5-------|-----------------|
|---5-4---4-------|-----------------------|---5---5---------|-----------------|
|-------------3---|-------------2-----2---|-----------------|---3-(3)----2----|
|-3-----2---------|-----------------------|-3---3---------6-|---3-(3)---------|
|-----------1---1-|-0-0-0-0-0-0---0-0---0-|-----------0-0---|-0-1-(1)------0--|


                                                     2/4
  Gtr I
  PM  PM|   PM|     PM    PM  PM  PM       ~~~~~~~~~~~~~~~
  E E E E E E E E   E E E E E E E E   Q.   E +H       +H
|-----------------|-----------------|---------------|--------|
|-----------------|-----------------|---------------|--------|
|---------------5-|---5-4---4-------|------8-(8)----|-(8)----|
|---6-----5-------|-------------3---|-2-------------|--------|
|-------------3---|-3-----2---------|-2----6-(6)----|-(6)----|
|-0---0-0---0-----|-----------1---1-|-0-------------|--------|
|
| Gtr II
| PM  PM|   PM|     PM    PM  PM  PM       ~~~~~~~~~~~~~~~
| E E E E E E E E   E E E E E E E E   Q.   E +H       +H
|-----------------|-----------------|---------------|--------|
|-----------------|-----------------|---------------|--------|
|---------------5-|---5-4---4-------|------5-(5)----|-(5)----|
|---2-----2-------|-------------3---|-2-------------|--------|
|-------------3---|-3-----2---------|-2----3-(3)----|-(3)----|
|-0---0-0---0-----|-----------1---1-|-0-------------|--------|


 Riff 5 (1:21)
 4/4
  Gtr I
           PM----|             PM  PM----|           PM    PM--------|     PM
  E E E  E E E E E   E E E E E E E E   E E E E E E E E   E S S S S S S E E E E
|------------------|-----------------|-----------------|-----------------------|
|------------------|-----------------|-----------------|-----------------------|
|------------------|-----------------|-----------------|-----------------------|
|-5---5S=6---------|-6-------5---6---|-----6-------5---|-6-------------------6-|
|------------------|-----------------|-----------------|-----------------------|
|---0------0-3-0-4-|---3p0h3---4---3-|-0-4---3p0h3---4-|---0-0-4-4-4-4-4-0-4---|
|
| Gtr II
|   PM|    PM|       ~         PM  PM      ~                       ~     PM|
| E E E  E E E E E   Q   E E E E E E   E E Q   E E E E   E E   E   Q     E E E
|------------------|-----------------|-----------------|-----------------------|
|------------------|-----------------|-----------------|-----------------------|
|-9-----10---------|-----------------|-----------------|-----------------------|
|------------------|-2-------2---3---|-----2-------2---|-3---------2---------2-|
|-----7------------|-----------------|-----------------|-----------------------|
|---0------0-1-0h1-|-----0h1---1---1-|-0h1-----0h1---1-|---0h==1---------0-1---|


  Gtr I
  PM  PM------------------|     PM  PM--|
  E E S S S S S S S S S S E   E E E E E E E E
|---------------------------|-----------------|
|---6-----------------------|-----------------|
|---------------------------|-9---9-----------|
|---------------------------|-----------6-----|
|---------------------------|---7-------------|
|-4---0-0-4-4-4-4-4-4-3-3-4-|-------0-4---4p0-|
|
| Gtr II
| PM          ~       PM--|             ~   PM-
| E E E   E   Q       E   E   E E E E E Q   E
|---------------------------|-----------------|
|---------------------------|-----------------|
|---------------------------|-----------------|
|---3---------3-------------|-3---6-----2-----|
|---------------------------|-----------------|
|-1---0h==1-----------0---1-|---1---0h1-----0-|


  PM  PM  PM--|       PM  PM  PM--------|
  E E E E E E E E   E E E E E S S S S S S
|-----------------|------------------------|
|-----------------|------------------------|
|-----------------|------------------------|
|---5---6-----6---|-----5---6--------------|
|-----------------|------------------------|
|-4---4---0-4---4p|=0-4---4---0-0-4-4-4-4--|
|
|-|   PM      ~     PM|   PM          ~
| E E E E E E Q     E E E E E E   E   E
|-----------------|------------------------|
|-----------------|------------------------|
|-----------------|------------------------|
|---2---3-----2---|-----2---3---------3----|
|-----------------|------------------------|
|-1---1---0h1-----|-0-1---1---0h==1--------|


                                Q=230
  Gtr I
        PM  PM  PM------------------------|
                                              |-3-| |-3-|
   E  E E E E E S S S S   S S S S  S  S   E   E E E E E E
|-----------------------|---------------------------------|
|-------------6---------|---------------------------------|
|-----------------------|---------------------2h4h5p4p2h4-|
|---------6-------------|-----------------6---------------|
|-----------------------|---------------------------------|
|--4--0-4---4---0-0-4-4-|-4-4-4-4--3--3-------------------|
|
| Gtr II
|       PM                ~
|                                  |---3----| |-3-| |-3-|
| +E  E E E E E E   E     Q       +E    E   E E E E E E E
|-----------------------|---------------------------------|
|-----------------------|---------------------------------|
|-----------------------|---------------------------------|
|-(3)-----3---6---------|-3-------(3)-----------6h7-6-----|
|-----------------------|-------------------7h8-------7-8-|
|-----0-1---1---0h==1---|---------------4-----------------|


 Riff 6 (1:35)
 4/4
  Gtr I
    PM    PM|   PM--|         PM|          PM  PM  PM
  E E E E E E E E   E E E E E E  E E   E E E E E E E E
|-----------------|------------------|-----------------|
|-----------------|------------------|-----------------|
|-----------------|----------------2-|-4p2-------------|
|-7-----------3---|---3-----3----3---|-------2---3---3-|
|---------------0-|-0----------------|-----------------|
|---5-5S1-4-1-----|-----4S1---1------|-----1---1---1---|
|
| Gtr II
|   PM    PM|   PM--|     PM  PM   PM      PM  PM  PM
| E E E E E E E E   E E E E E E  E E   E E E E E E E E
|-----------------|------------------|-----------------|
|-----------------|------------------|-0---------------|
|-----------------|-------------/2-5-|---5-------------|
|-7---7-3-----7---|---7p6---7--------|-------6---7---6-|
|---0-------------|-------8---0------|-----------------|
|---------4-4---5-|-5----------------|-----4---4---4---|


  Gtr I
    PM    PM|   PM--|         PM           PM     PM|
  E E E E E E E E   E E E E E E  E E   E E E E  E E E  E
|-----------------|------------------|-------------------|
|-----------------|------------------|-------------------|
|-----------------|------------------|----------------10-|
|-7-----------3---|---3-----3----3S6-|-7p6---9S15--------|
|---------------0-|-0----------------|------------8-8----|
|---5-5S1-4-1-----|-----4S1---1------|-----7------7-7----|
|
| Gtr II
|   PM    PM|   PM--|     PM  PM   PM      PM   PM  PM
| E E E E E E E E   E E E E E E  E E   E E E E  E E E  E
|-----------------|------------------|-------------------|
|-----------------|------------------|-0-----------------|
|-----------------|-------------/2-5-|---5---7-----------|
|-7---7-3-----7---|---7p6---7--------|------------6----9-|
|---0-------------|-------8---0------|-----5-------------|
|---------4-4---5-|-5----------------|----------4---4----|


  Gtr I
    PM    PM|   PM--|         PM|          PM  PM  PM
  E E E E E E E E   E E E E E E  E E   E E E E E E E E
|-----------------|------------------|-----------------|
|-----------------|------------------|-----------------|
|-----------------|----------------2-|-4p2-------------|
|-7-----------3---|---3-----3----3---|-------2---3---3-|
|---------------0-|-0----------------|-----------------|
|---5-5S1-4-1-----|-----4S1---1------|-----1---1---1---|
|
| Gtr II
|   PM    PM|   PM--|     PM  PM   PM      PM  PM  PM
| E E E E E E E E   E E E E E E  E E   E E E E E E E E
|-----------------|------------------|-----------------|
|-----------------|------------------|-0---------------|
|-----------------|-------------/2-5-|---5-------------|
|-7---7-3-----7---|---7p6---7--------|-------6---7---6-|
|---0-------------|-------8---0------|-----------------|
|---------4-4---5-|-5----------------|-----4---4---4---|


  Gtr I
    PM    PM|   PM--|         PM           PM     PM|
  E E E E E E E E   E E E E E E  E E   E E E E  E E E  E
|-----------------|------------------|-------------------|
|-----------------|------------------|-------------------|
|-----------------|------------------|-------------------|
|-7-----------3---|---3-----3----3S6-|-7p6---9h10-----12-|
|---------------0-|-0----------------|-------------------|
|---5-5S1-4-1-----|-----4S1---1------|-----7------7-7----|
|
| Gtr II
|   PM    PM|   PM--|     PM  PM   PM      PM   PM  PM
| E E E E E E E E   E E E E E E  E E   E E E E  E E E  E
|-----------------|------------------|-------------------|
|-----------------|------------------|-0-----------------|
|-----------------|-------------/2-5-|---5---7-----------|
|-7---7-3-----7---|---7p6---7--------|------------6----7-|
|---0-------------|-------8---0------|-----5-------------|
|---------4-4---5-|-5----------------|----------4---4----|


 Riff 7 (1:47)
  Gtr I
  PM  PM  PM    PM--|   PM----|            PM  PM  PM    PM      PM  PM  PM
  E E E E E E E E   E E S S S S E E  E E   E E E E E E E E   E E E E E E E E
|-----------------|----------------------|-----------------|-----------------|
|-----------------|----------------------|-----------------|-----------------|
|---4---------4---|---4-------------10---|---4-------------|-----------4-----|
|-------3---3-----|----------------------|-------3---3h6---|-7-3---7-------3-|
|-2-------------2-|-2------------------8-|-2-------------0-|---------2-------|
|-----0---0-------|-----4-4-4-4-4-7------|-----0---0-------|-----4-------0---|
|
| Gtr II
| PM  PM  PM    PM--|   PM----|            PM  PM  PM    PM    PM|   PM  PM
| E E E E E E E E   E E S S S S E E  E E   E E E E E E E E   E E E E E E E E
|-----------------|----------------------|-----------------|-----------------|
|-----------------|----------------------|-----------------|-----------------|
|---4---------4---|---4------------------|---4---------4---|-5-----5---4-----|
|-------3---3-----|------------------7---|-------3---3-----|---------------3-|
|-2-------------2-|-2------------------5-|-2-------------2-|---0-2---2-------|
|-----0---0-------|-----1-1-1-1-1-4------|-----0---0-------|-------------0---|


  Gtr I
  PM    PM|   PM----|            PM  PM    PM    PM
  E E E E E E S S S S   E E  E E E E E E   E E E E E E E E
|---------------------|------------------|-----------------|
|---------------------|------------------|-----------------|
|-----4-----4---------|-----10-----4-----|-----------------|
|---3-----------------|----------------3-|---3-6---7p3-6p2-|
|-------2-2-----------|--------8S2-------|-----------------|
|-0-----------4-4-4-4-|-4-7----------0---|-0-----0---------|
|
| Gtr II
| PM    PM|   PM----|            PM  PM    PM    PM  PM|
| E E E E E E S S S S   E E  E E E E E E   E E E E E E E E
|---------------------|------------------|-----------------|
|---------------------|------------------|-----------------|
|-----4-----4---------|------------4-----|-----4---5-------|
|---3-----------------|------7---------3-|---3-----------6-|
|-------2-2-----------|--------5-2-------|-------2---0-2---|
|-0-----------1-1-1-1-|-1-4----------0---|-0---------------|


  Gtr I
    PM    PM|   PM--|         PM|          PM  PM  PM
  E E E E E E E E   E E E E E E  E E   E E E E E E E E
|-----------------|------------------|-----------------|
|-----------------|------------------|-----------------|
|-----------------|----------------2-|-4p2-------------|
|-7-----------3---|---3-----3----3---|-------2---3---3-|
|---------------0-|-0----------------|-----------------|
|---5-5S1-4-1-----|-----4S1---1------|-----1---1---1---|
|
| Gtr II
|   PM    PM|   PM--|     PM  PM   PM      PM  PM  PM
| E E E E E E E E   E E E E E E  E E   E E E E E E E E
|-----------------|------------------|-----------------|
|-----------------|------------------|-0---------------|
|-----------------|-------------/2-5-|---5-------------|
|-7---7-3-----7---|---7p6---7--------|-------6---7---6-|
|---0-------------|-------8---0------|-----------------|
|---------4-4---5-|-5----------------|-----4---4---4---|


  Gtr I
    PM    PM|   PM--|         PM           PM     PM|
  E E E E E E E E   E E E E E E  E E   E E E E  E E E  E
|-----------------|------------------|-------------------|
|-----------------|------------------|-------------------|
|-----------------|------------------|-------------------|
|-7-----------3---|---3-----3----3S6-|-7p6---9h10-----12-|
|---------------0-|-0----------------|-------------------|
|---5-5S1-4-1-----|-----4S1---1------|-----7------7-7----|
|
| Gtr II
|   PM    PM|   PM--|     PM  PM   PM      PM   PM  PM
| E E E E E E E E   E E E E E E  E E   E E E E  E E E  E
|-----------------|------------------|-------------------|
|-----------------|------------------|-0-----------------|
|-----------------|-------------/2-5-|---5---7-----------|
|-7---7-3-----7---|---7p6---7--------|------------6----7-|
|---0-------------|-------8---0------|-----5-------------|
|---------4-4---5-|-5----------------|----------4---4----|


 Solo (2:00)
  Q=120
 3/4
  Gtrs I, II
  H                    +E         E
|-----------------------------------------|
|-----------------------------------------|
|---------------------------------2-------|
|---------------------------------0-------|
|-2--------------------(2)----------------|
|-0--------------------(0)----------------|
|
| Gtr IV
|     |------6-------|  |-------6-------|
| Q   S  S  S  S  S  S  S   S  S  S  S  S
|----17-16-13-16-13----13-----------------|
|-------------------17-----17-15-17-15-13-|
|-----------------------------------------|
|-----------------------------------------|
|-----------------------------------------|
|-----------------------------------------|


  +Q.                          Q.
|----------------------------------------------------------|
|----------------------------------------------------------|
|-(2)------------------------------------------------------|
|-(0)------------------------------------------------------|
|------------------------------3---------------------------|
|------------------------------1---------------------------|
|
|  |-------6-------|  |-------6-------|  |------6-------|
|  S   S  S  S  S  S  S  S  S  S   S  S  S  S  S  S  S  S
|----------------------------------------------------------|
|-15--13----13-15-17-15-13-15-13--12-13-15-17-15-13-15-13--|
|--------16------------------------------------------------|
|----------------------------------------------------------|
|----------------------------------------------------------|
|----------------------------------------------------------|


  Gtrs I, II
   H                +E        E
|-------------------------------------|
|-------------------------------------|
|-----------------------------2-------|
|-----------------------------0-------|
|--2----------------(2)---------------|
|--0----------------(0)---------------|
|
| Gtr IV
|                ~~~~
|  |--3--|           |------6-------|
|  S  S  S  Q   +E   S  S  S  S  S  S
|-------12----------------------------|
|-10-13----12--(12)-------------------|
|-------------------13h14p13----13----|
|----------------------------15----15-|
|-------------------------------------|
|-------------------------------------|


  +H.
|-------------------------------------------|
|-------------------------------------------|
|-(2)---------------------------------------|
|-(0)---------------------------------------|
|-------------------------------------------|
|-------------------------------------------|
|
|                                       ~~
|  |-------6-------|  |------6-------|
|  S   S  S  S  S  S  S  S  S  S  S  S  Q
|-------------------------------------------|
|-------------------------------------------|
|--------13----------------------13---------|
|-14--15----15-14-15-14----14-15----14-15---|
|-----------------------17------------------|
|-------------------------------------------|


  Gtrs I, II
   H                 +E   E   +Q.              Q.          H             E E
|---------------------------|---------------------------|--------------------|
|---------------------------|---------------------------|--------------------|
|-------------------------2-|-(2)-----------------------|--------------------|
|-------------------------0-|-(0)-----------------------|--------------------|
|--2-----------------(2)----|------------------3--------|--2-----------------|
|--0-----------------(0)----|------------------1--------|--0-------------1h4-|
|
| Gtr IV
|  ~~
|     |--3--|
|  E  S  S  S  E   E  E   E    E   +S   S  E   E   E  E    E  +S   S  H
|---------------------------|---------------------17----|--------------------|
|----------------/12-12-----|----------------/15--------|--------------------|
|------------------------14-|-13--(13)s14-13---------17-|-16-(16)s17-16------|
|-15-14h15p14---------------|---------------------------|--------------------|
|-------------17------------|---------------------------|--------------------|
|---------------------------|---------------------------|--------------------|
|
| Gtr III
|  W                           W                           W
|---------------------------|---------------------------|--------------------|
|---------------------------|---------------------------|--------------------|
|---------------------------|---------------------------|--------------------|
|---------------------------|---------------------------|--------------------|
|---------------------------|---------------------------|--------------------|
|---------------------------|---------------------------|--------------------|


                                         ~~
    E         E        E        E        Q
|----------------------------------------------------------|
|----------------------------------------------------------|
|----------------------------------------------------------|
|----------------------------------------------------------|
|----------------------------------------------------------|
|---4s========5--------4s=======5--------4-----------------|
|
|   >
|   ~~~~
|  +H.
|----------------------------------------------------------|
|----------------------------------------------------------|
|-(16)-----------------------------------------------------|
|----------------------------------------------------------|
|----------------------------------------------------------|
|----------------------------------------------------------|
|
|   |-------6-------|  |------6-------|  |------6-------|
|   S   S  S  S  S  S  S  S  S  S  S  S  S  S  S  S  S  S
|----------------------------------------------------------|
|----------------------------------------------------------|
|---------14-16-17-19-17-16-17-16-14-16-17-19-17-16-17-16--|
|--15--18--------------------------------------------------|
|----------------------------------------------------------|
|----------------------------------------------------------|


  Gtrs I, II
   H                                  +E         E
|--------------------------------------------------------|
|--------------------------------------------------------|
|------------------------------------------------2-------|
|------------------------------------------------0-------|
|--2----------------------------------(2)----------------|
|--0----------------------------------(0)----------------|
|
| Gtr III
|  |------6-------|  |------6-------|  |-------6-------|
|  S  S  S  S  S  S  S  S  S  S  S  S  S   S  S  S  S  S
|----------17h20-17----17-------------17--22-17----17----|
|-------17----------17----17-12s15-18-----------18----18-|
|----17--------------------------------------------------|
|-19-----------------------------------------------------|
|--------------------------------------------------------|
|--------------------------------------------------------|


  +Q.                          Q.
|---------------------------------------------------------|
|---------------------------------------------------------|
|-(2)-----------------------------------------------------|
|-(0)-----------------------------------------------------|
|------------------------------3--------------------------|
|------------------------------1--------------------------|
|
|  |-------6-------|  |-------6-------|  |------6-------|
|  S   S  S  S  S  S  S  S  S  S   S  S  S  S  S  S  S  S
|--------------------------17-22--17----20-17----20-17----|
|-15-----------------15-18-----------18-------18-------18-|
|-----14----------14--------------------------------------|
|--------15----15-----------------------------------------|
|-----------17--------------------------------------------|
|---------------------------------------------------------|


  Gtrs I, II
   H        +E  E      +H.
|--------------------|--------------------|
|--------------------|--------------------|
|---------------2----|-(2)----------------|
|---------------0----|-(0)----------------|
|--2--------(2)------|--------------------|
|--0--------(0)------|--------------------|
|
| Gtr III
|                                    ~~~~~
|  E  Q   E  E  S  S    S  S   E  E  Q.
|--------------------|-------/12-12-10----|
|-17-12--10--9--9s10-|--9s10--------------|
|--------------------|--------------------|
|--------------------|--------------------|
|--------------------|--------------------|
|--------------------|--------------------|
|
| Gtr IV
|
|  W                    W
|--------------------|--------------------|
|--------------------|--------------------|
|--------------------|--------------------|
|--------------------|--------------------|
|--------------------|--------------------|
|--------------------|--------------------|


  Gtrs I, II
    H                     +E         E
|--------------------------------------------|
|--------------------------------------------|
|------------------------------------2-------|
|------------------------------------0-------|
|---2---------------------(2)----------------|
|---0---------------------(0)----------------|
|
| Gtr III
| ~~~~~~~
|  +H                      Q
|-(10)---------------------------------------|
|--------------------------------------------|
|--------------------------------------------|
|--------------------------------------------|
|--------------------------------------------|
|--------------------------------------------|
|
| Gtr IV
|        |------6-------|  |-------6-------|
|   Q    S  S  S  S  S  S  S   S  S  S  S  S
|-------------19h22-19-----------------------|
|-------18h21----------21p18-----------------|
|-----------------------------16----------16-|
|--------------------------------18p15-18----|
|--------------------------------------------|
|--------------------------------------------|




  +Q.                    Q.
|-----------------------------------------------|
|-----------------------------------------------|
|-(2)-------------------------------------------|
|-(0)-------------------------------------------|
|------------------------3----------------------|
|------------------------1----------------------|
|
|  W
|-----------------------------------------------|
|-----------------------------------------------|
|-----------------------------------------------|
|-----------------------------------------------|
|-----------------------------------------------|
|-----------------------------------------------|
|
|            T
|  |-------6-------|     |--3---|     |--3--|
|  S   S  S  S  S  S  E  S   S  S  E  S  S  S
|-----16h19h24p19p16h17--------16-19-------16---|
|-18--------------------17--18-------17-18------|
|-----------------------------------------------|
|-----------------------------------------------|
|-----------------------------------------------|
|-----------------------------------------------|


  Gtrs I, II
   H                                   E        E
|-------------------------------------------------------|
|-------------------------------------------------------|
|-------------------------------------------------------|
|-------------------------------------------------------|
|--2----------------------------------------------------|
|--0-----------------------------------1h=======4-------|
|
| Gtr IV
|  |------6-------|  |------6-------|  |------6-------|
|  S  S  S  S  S  S  S  S  S  S  S  S  S  S  S  S  S  S
|-------------------------------------------------------|
|-18-17-18-17-15-17-15----15----------------------------|
|----------------------17----17-16-17-16-14-16-13-14-16-|
|-------------------------------------------------------|
|-------------------------------------------------------|
|-------------------------------------------------------|


                                 ~
   E        E        E        E  Q
|------------------------------------|
|------------------------------------|
|------------------------------------|
|------------------------------------|
|------------------------------------|
|--4s=======5--------4s=======5--4---|
|
|                             ~~~
|  |------6-------|  |--6--|
|  S  S  S  S  S  S  S  S  S  Q.
|------------------------------------|
|----15-17-15-13-15-13---------------|
|-17-------------------14-17-16------|
|------------------------------------|
|------------------------------------|
|------------------------------------|


  Gtrs I, II
   H                                     +E         E
|-----------------------------------------------------------|
|-----------------------------------------------------------|
|---------------------------------------------------2-------|
|---------------------------------------------------0-------|
|--2-------------------------------------(2)----------------|
|--0-------------------------------------(0)----------------|
|
| Gtr IV
|  |--------6--------|  |------6-------|  |-------6-------|
|  S  S  S  S  S  T  T  S  S  S  S  S  S  S   S  S  S  S  S
|----------13-16-16s17-16-13-16-13----13-16--17-16-13-16-13-|
|-13-15-17-------------------------17-----------------------|
|-----------------------------------------------------------|
|-----------------------------------------------------------|
|-----------------------------------------------------------|
|-----------------------------------------------------------|


  +Q.                          Q.
|----------------------------------------------------------|
|----------------------------------------------------------|
|-(2)------------------------------------------------------|
|-(0)------------------------------------------------------|
|------------------------------3---------------------------|
|------------------------------1---------------------------|
|
|  |-------6-------|  |-------6-------|  |------6-------|
|  S   S  S  S  S  S  S  S  S  S   S  S  S  S  S  S  S  S
|-----13---------------------------------------------------|
|-17-----17-15-17-15-13-15-13------------------------------|
|-----------------------------16--17-16-14-16-14-13-14-16--|
|----------------------------------------------------------|
|----------------------------------------------------------|
|----------------------------------------------------------|


  Gtrs I, II
   H                                  +E         E
|--------------------------------------------------------|
|--------------------------------------------------------|
|------------------------------------------------2-------|
|------------------------------------------------0-------|
|--2----------------------------------(2)----------------|
|--0----------------------------------(0)----------------|
|
| Gtr IV
|  |------6-------|  |------6-------|  |-------6-------|
|  S  S  S  S  S  S  S  S  S  S  S  S  S   S  S  S  S  S
|--------------------------------------------------------|
|--------------------------------------------------------|
|-14-13-14-13----13-14-16-14-13-14-13-----13-------------|
|-------------15----------------------15-----15-14-15-14-|
|--------------------------------------------------------|
|--------------------------------------------------------|


  +H.
|--------------------------------------------------|
|--------------------------------------------------|
|-(2)----------------------------------------------|
|-(0)----------------------------------------------|
|--------------------------------------------------|
|--------------------------------------------------|
|
|                                                ~~
|  |-------6-------|  |------6-------|  |--3--|
|  S   S  S  S  S  S  S  S  S  S  S  S  S  S  S  E
|--------------------------------------------------|
|--------------------13-15-17-15-13-15-13----13-12-|
|-----------13-14-16----------------------14-------|
|-12--14-15----------------------------------------|
|--------------------------------------------------|
|--------------------------------------------------|


  Gtrs I, II
    H                               +E         E
|------------------------------------------------------|
|------------------------------------------------------|
|----------------------------------------------2-------|
|----------------------------------------------0-------|
|---2-------------------------------(2)----------------|
|---0-------------------------------(0)----------------|
|
| Gtr IV
|   |-----6-----|  |------6-------|  |-------6-------|
|   E  S  S  S  S  S  S  S  S  S  S  S   S  S  S  S  S
|--------17-22-17----17----------16-19--24-19-16-19-16-|
|-/15-18----------18----18-15s17-----------------------|
|------------------------------------------------------|
|------------------------------------------------------|
|------------------------------------------------------|
|------------------------------------------------------|


  +Q.                          Q.
|----------------------------------------------------------|
|----------------------------------------------------------|
|-(2)------------------------------------------------------|
|-(0)------------------------------------------------------|
|------------------------------3---------------------------|
|------------------------------1---------------------------|
|
|  |-------6-------|  |-------6-------|  |------6-------|
|  S   S  S  S  S  S  S  S  S  S   S  S  S  S  S  S  S  S
|-----------------------16-19-24--19-16-22-19-16-22-19-16--|
|-17-----------------17------------------------------------|
|-----16-13----13-16---------------------------------------|
|-----------14---------------------------------------------|
|----------------------------------------------------------|
|----------------------------------------------------------|


  Gtrs I, II
   H                     E  E
|-----------------------------|
|-----------------------------|
|-----------------------------|
|-----------------------------|
|--2--------------------------|
|--0---------------------1h=4-|
|
| Gtr IV
|      |--3--|
|  E   S  S  S  S  S  E  E  E
|--------------------22-22-19-|
|-18--15h18-15-17s18----------|
|-----------------------------|
|-----------------------------|
|-----------------------------|
|-----------------------------|
|
| Gtr III
|  H.
|-----------------------------|
|-----------------------------|
|-----------------------------|
|-----------------------------|
|-----------------------------|
|-----------------------------|


                                        ~~~~~
   E        E        E        E         Q
|----------------------------------------------------------|
|----------------------------------------------------------|
|----------------------------------------------------------|
|----------------------------------------------------------|
|----------------------------------------------------------|
|--4s=======5--------4s=======5---------4------------------|
|
|  H                                   +Q
|-19----------------------------------(19)\----------------|
|----------------------------------------------------------|
|----------------------------------------------------------|
|----------------------------------------------------------|
|----------------------------------------------------------|
|----------------------------------------------------------|
|
|  |------6-------|  |------6-------|   |-------6--------|
|  S  S  S  S  S  S  S  S  S  S  S  S   S    S  S  S  S  S
|----------------------------------------------------------|
|----------------------------------------------------------|
|-------14-16-17-19-17-16-17-16-14-16--17---19-17-16-17-16-|
|-15-18----------------------------------------------------|
|----------------------------------------------------------|
|----------------------------------------------------------|


   H                                  +E         E
|--------------------------------------------------------|
|--------------------------------------------------------|
|------------------------------------------------2-------|
|------------------------------------------------0-------|
|--2----------------------------------(2)----------------|
|--0----------------------------------(0)----------------|
|
| Gtr III
|  |------6-------|  |------6-------|  |-------6-------|
|  S  S  S  S  S  S  S  S  S  S  S  S  S   S  S  S  S  S
|----------17h20-17----17-------------17--22-17----17----|
|-------17----------17----17-12s15-18-----------18----18-|
|----17--------------------------------------------------|
|-19-----------------------------------------------------|
|--------------------------------------------------------|
|--------------------------------------------------------|


  +Q.                          Q.
|---------------------------------------------|
|---------------------------------------------|
|-(2)-----------------------------------------|
|-(0)-----------------------------------------|
|------------------------------3--------------|
|------------------------------1--------------|
|
|  |-------6-------|  |-------6-------|
|  S   S  S  S  S  S  S  S  S  S   S  S  E. S
|--------------------------17-22--17----------|
|-15-----------------15-18-----------18-17s18-|
|-----14----------14--------------------------|
|--------15----15-----------------------------|
|-----------17--------------------------------|
|---------------------------------------------|


  Gtrs I, II
   H             +E         E         +H.
|-----------------------------------|------------------------------------|
|-----------------------------------|------------------------------------|
|---------------------------2-------|-(2)--------------------------------|
|---------------------------0-------|-(0)--------------------------------|
|--2-------------(2)----------------|------------------------------------|
|--0-------------(0)----------------|------------------------------------|
|
| Gtr III
|  ~~~                                                    ~~~
|        |-------6-------|  |--3--|    |--3---|  |--3--|         |--3--|
|  Q.    S  S  S  S   S  S  S  S  S    S   S  S  S  S  S  Q.     S  S  S
|-------------19-22--19----24-19----|-19---------------------------------|
|-17-------21-----------21-------21-|-----21--------------------------18-|
|-------22--------------------------|--------22-16-----------------16----|
|-----------------------------------|--------------18-15--------18-------|
|-----------------------------------|--------------------17--------------|
|-----------------------------------|------------------------------------|
|
| Gtr IV
|                                                                |--3--|
|  W                                   H                      E  S  S  S
|-----------------------------------|------------------------------------|
|-----------------------------------|---------------------------------15-|
|-----------------------------------|------------------------------13----|
|-----------------------------------|---------------------------15-------|
|-----------------------------------|------------------------------------|
|-----------------------------------|------------------------------------|


  Gtrs I, II
                                                                         ~
   H       +E   E   +Q.        Q.        H              E E    E  E  E E Q
|-----------------|-------------------|---------------------|---------------|
|-----------------|-------------------|---------------------|---------------|
|---------------2-|-(2)---------------|---------------------|---------------|
|---------------0-|-(0)---------------|---------------------|---------------|
|--2-------(2)----|------------3------|--2------------------|---------------|
|--0-------(0)----|------------1------|--0--------------1h4-|--4s=5--4s5-4--|
|
| Gtr III
|                                                       ~~~          ~~~
|  Q.    E  E   E    E   E  Q.      E    Q   +S   S  E  Q      E  E  H
|-16----17s16--19s|=20--19-17------19-|-16--(16)s17-17-16---|-16s17-16------|
|-----------------|-------------------|---------------------|---------------|
|-----------------|-------------------|---------------------|---------------|
|-----------------|-------------------|---------------------|---------------|
|-----------------|-------------------|---------------------|---------------|
|-----------------|-------------------|---------------------|---------------|
|
| Gtr IV
|                                                       ~~~          ~~~
|  Q.    E  E   E    E   E  Q.      E    Q   +S   S  E  Q      E  E  H
|-13----14s13--16s|=17--16-13------16-|-13--(13)s14-14-13---|-13s14-13------|
|-----------------|-------------------|---------------------|---------------|
|-----------------|-------------------|---------------------|---------------|
|-----------------|-------------------|---------------------|---------------|
|-----------------|-------------------|---------------------|---------------|
|-----------------|-------------------|---------------------|---------------|


 Riff 8 (2:50)
 4/4
  Gtr I
                                        PM                PM--|
   |---3----|                                             |---3---|
   Q    Q   Q   +H          +E  E E E E E E E   +H        Q   Q   Q
|-------------------------|-----------------0-|-(0)--------------------|
|-------------------------|---------------1---|------------------------|
|-------------------------|---------1-5-1-----|------------------------|
|--7----7---3---(3)-------|-(3)-3-2-----------|------------------------|
|--7----7---3---(3)-------|-(3)---------------|-----------3---3---3----|
|--5----5---1---(1)-------|-(1)---------------|-----------4---4---1----|
|
| Gtr II
|     PM         PM-|   PM--|       PM  PM            PM  PM    PM
|  E  E   E   E  E  E E E    E  E E E E E E E    E  E E E E E   E   E
|-------------------------|-------------------|------------------------|
|-------------------------|-------------------|--0---------------------|
|-------------------------|-----------------5-|-----5------------------|
|--7------7p==3-----3-7---|-----7p6---7---7---|---------6---7-------6--|
|-----0-----------------0-|--0----------0-----|------------------------|
|----------------4--------|---------1---------|-------4---4-----4------|
|
| Gtr IV
|  H             H           W                   W
|-12\---------------------|-------------------|------------------------|
|-------------------------|-------------------|------------------------|
|-------------------------|-------------------|------------------------|
|-------------------------|-------------------|------------------------|
|-------------------------|-------------------|------------------------|
|-------------------------|-------------------|------------------------|


  Gtr I
      PM----------|     PM--|      PM----|              PM------|
                                     |---3---|          |---3---|
  +E  S S S S S S E E E E   E E  E E Q   Q   Q     +Q   Q   Q   Q   Q
|-------------------------|----------------------|----------------------|
|-------------------------|----------------------|----------------------|
|-------------------4-----|----------------------|----------------------|
|---------------------7---|---7h10---------------|----------------------|
|-(3)-------------------0-|-0--------3---3---3---|-(3)--2---2---3---3---|
|-(1)-5-5-5-5-5-5-4-------|--------4-5---5---4---|-(4)----------1---1---|
|
| Gtr II
|     PM          PM|   PM--|      PM  PM               PM    PM    PM
|  E  E   E   E   E E E E   E E  E E E E   E   E    E E E E   E   E E E
|-------------------------|----------------------|----------------------|
|-------------------------|----------------------|----------------------|
|-------------------------|--------------------4-|--5p4---7-------------|
|--7------7p==3-----3-7---|---7p=6---7-----7-----|----------------6---9-|
|-----0-----------------0-|-0----------0---------|----------------------|
|-----------------4-------|--------1-------------|------7-----4-----4---|


  Gtr I
  PM--|                               PM                PM--|
  |---3---|                                             |---3---|
  Q   Q   Q   +H          +E  E E E E E E E   +H        Q   Q   Q
|-----------------------|-----------------0-|-(0)-------------------|
|-----------------------|---------------1---|-----------------------|
|-----------------------|---------1-5-1-----|-----------------------|
|---------3---(3)-------|-(3)-3-2-----------|-----------------------|
|---------3---(3)-------|-(3)---------------|-----------3---3---3---|
|-5---5---1---(1)-------|-(1)---------------|-----------4---4---1---|
|
| Gtr II
|   PM         PM-|   PM--|       PM  PM            PM  PM    PM
| E E   E   E  E  E E E    E  E E E E E E E    E  E E E E E   E   E
|-----------------------|-------------------|-----------------------|
|-----------------------|-------------------|--0--------------------|
|-----------------------|-----------------5-|-----5-----------------|
|-7-----7p==3-----3-7---|-----7p6---7---7---|---------6---7-------6-|
|---0-----------------0-|--0----------0-----|-----------------------|
|--------------4--------|---------1---------|-------4---4-----4-----|


  Gtr I
      PM----------|     PM--|      PM----|
                                     |---3---|
  +E  S S S S S S E E E E   E E  E E Q   Q   Q
|-------------------------|----------------------|
|-------------------------|----------------------|
|-------------------4-----|----------------------|
|---------------------7---|---7h10---------------|
|-(3)-------------------0-|-0--------3---3---3---|
|-(1)-5-5-5-5-5-5-4-------|--------4-5---5---4---|
|
| Gtr II
|     PM          PM|   PM--|      PM  PM
|  E  E   E   E   E E E E   E E  E E E E   E   E
|-------------------------|----------------------|
|-------------------------|----------------------|
|-------------------------|--------------------4-|
|--7------7p==3-----3-7---|---7p=6---7-----7-----|
|-----0-----------------0-|-0----------0---------|
|-----------------4-------|--------1-------------|


  Q=180
       PM--------------------|
  +Q   S S S S S S S S S S S S
|------------------------------|
|------------------------------|
|------------------------------|
|------------------------------|
|-(3)--2-2-2-2-2-2-2-2---------|
|-(4)------------------1-1-1-1-|
|
|      PM      PM--|       PM
|  E E E   E   E   E   E   E
|------------------------------|
|------------------------------|
|--5p4-----7-------------------|
|----------------------6-------|
|------5-------5---------------|
|------------------4-------4---|


 Riff 9 (3:15)
  Q=180
 4/4
  Gtr I
  PM----|       PM  PM         PM--------|     PM  PM  PM  PM
  S S S S E E E E E E   E  E E E S S S S E E   E E E E E E E E
|---------------------|----------------------|------------------|
|---------------------|----------------------|------------------|
|---------------------|--------------------5-|---5--------------|
|-------------3---7---|-7h10-----------------|-------2---3---3--|
|-------------------0-|------8---0-0-0-0-0---|-3----------------|
|-5-5-5-5-0h1---4-----|--------4-------------|-----1---1---1----|
|
| Gtr II
|     PM      PM|   PM--|      PM    PM            PM  PM  PM
| E   E   E E E E E E   E  E E E E   E   E E   E E E E E E E E
|---------------------|----------------------|------------------|
|---------------------|----------------------|-0----------------|
|---------------------|--------------------5-|---5--------------|
|-7-------7-3-----7---|----7-6---7-----------|-------6---7---6--|
|-----0---------------|----------------------|------------------|
|-------------4-4---5-|-5------1-----5---5---|-----4---4---4----|


  Gtr I
  PM----|       PM  PM         PM------|       PM    PM|   PM
  S S S S E E E E E E   E  E E E S S S S E E   E E E E E E E E
|---------------------|----------------------|-----------------|
|---------------------|----------------------|-----------------|
|---------------------|--------------------4-|---4h7-----------|
|-------------3---7---|-7h10-----------------|-----------7---6-|
|-------------------0-|------8---0-0-0-0-0---|-2-----5---------|
|-5-5-5-5-0h1---4-----|--------4-------------|---------4---4---|
|
| Gtr II
|     PM      PM|   PM--|      PM                    PM|   PM
| E   E   E E E E E E   E  E E E E   E   E E   E E E E E E E E
|---------------------|----------------------|-----------------|
|---------------------|----------------------|-----6-----------|
|---------------------|----------2-------2-4-|-5-4-------5---4-|
|-7-------7-3-----7---|----7-6---------------|-----------------|
|-----0---------------|--------------0-------|-------5-2---2---|
|-------------4-4---5-|-5------1-------------|-----------------|


 4/4
  Gtr I
  PM  PM  PM    PM    PM------------|                   PM  PM  PM
  E E E E E E E E   E S S S S S S E E S S S S   S S S S E E E E E E
|-----------------|---------------------------|----------------------|
|-----------------|---------------------------|----------------------|
|---4---------4---|-4-----------------1S2h4h5p|=4p2h4h5---4----------|
|-------3---3-----|---------------------------|---------------3---3--|
|-2-------------2-|---------------------------|---------2------------|
|-----0---0-------|---4-4-4-4-4-4-1-4---------|-------------0---0----|
|
| Gtr II
|           PM  PM    PM------------|                   PM  PM  PM
| E E E E E E E E   E S S S S S S E E S S S S   S S S S E E E E E E
|-----------------|---------------------------|----------------------|
|-----------------|---------------------------|----------------------|
|---4---------4---|-4-------------------------|-----------4----------|
|-------3---3-----|-------------------3S4h6h7p|=6p4-6-7-------3---3--|
|-2-------------2-|---------------------------|---------2------------|
|-----0---0-------|---1-1-1-1-1-1-1-4---------|-------------0---0----|


 4/4
  Gtr I
    PM  PM----------|     PM  PM    PM  PM--------------~
  E E E S S S S S S E E   E E E E E E E S S   S S S S E E S S S S S S S S
|-----------------------|-------------------|-----------------------------|
|-----------------------|-------------------|-----------------------------|
|-4---5---------------4-|---------4---4-----|-------------1S2h4h5p4p2-4h5-|
|-----------------------|---3---3-----------|-----------------------------|
|---2---------------2---|-----------2-------|-----------------------------|
|-------1-1-1-1-4-4-----|-0---0---------4-4-|-4-4-4-4-1-4-----------------|
|
| Gtr II
|   PM  PM----------|     PM  PM    PM  PM--------------~
| E E E S S S S S S E E   E E E E E E E S S   S S S S E E S S S S S S S S
|-----------------------|-------------------|-----------------------------|
|-----------------------|-------------------|-----------------------------|
|-4---5---------------4-|---------4---4-----|-----------------------------|
|-----------------------|---3---3-----------|-------------3S4h6h7p6p4-6h7-|
|---2---0-0-0-0-3-3-2---|-----------2-------|-----------------------------|
|-----------------------|-0---0---------1-1-|-1-1-1-1-1-4-----------------|


                               Q=220
                   5/4
  Gtr I
  PM  PM  PM    PM           ~~PM|    PM
  E E E E E E E E   E E E E  E E E  E E  E
|-----------------|------------------------|
|-----------------|------------------------|
|---4-------------|------------------------|
|-------3---3h6---|-7---7h9h10-----10---13-|
|-2---------------|---8--------------------|
|-----0---0-----4-|------------8-8----8----|
|
| Gtr II
| PM  PM  PM    PM    PM         PM
| E E E E E E E E   E E E E  E E E  E E  E
|-----------------|------------------------|
|-----------------|------------------------|
|---4---------4---|-5---5------2----5-4--5-|
|-------3---3-----|------------------------|
|-2-------------2-|---0----------0---------|
|-----0---0-------|-------4S=5-------------|


 4/4
  Gtr I
    PM    PM|   PM--|         PM|          PM  PM  PM
  E E E E E E E E   E E E E E E  E E   E E E E E E E E
|-----------------|------------------|------------------|
|-----------------|------------------|------------------|
|-----------------|----------------2-|-4p2--------------|
|-7-----------3---|---3-----3----3---|-------2---3---3S=|
|---------------0-|-0----------------|------------------|
|---5-5S1-4-1-----|-----4S1---1------|-----1---1---1----|
|
| Gtr II
|   PM    PM|   PM--|     PM  PM   PM      PM  PM  PM
| E E E E E E E E   E E E E E E  E E   E E E E E E E E
|-----------------|------------------|------------------|
|-----------------|------------------|-0----------------|
|-----------------|-------------/2-5-|---5--------------|
|-7---7-3-----7---|---7p6---7--------|-------6---7---6--|
|---0-------------|-------8---0------|------------------|
|---------4-4---5-|-5----------------|-----4---4---4----|


  Gtr I
    PM    PM|   PM--|         PM           PM     PM|
  E E E E E E E E   E E E E E E  E E   E E E E  E E E  E
|-----------------|------------------|--------------------|
|-----------------|------------------|--------------------|
|-----------------|------------------|----------------10--|
|-7-----------3---|---3-----3----3S6-|-7p6---9S15---------|
|---------------0-|-0----------------|------------8-8-----|
|---5-5S1-4-1-----|-----4S1---1------|-----7------7-7-----|
|
| Gtr II
|   PM    PM|   PM--|     PM  PM   PM      PM   PM  PM
| E E E E E E E E   E E E E E E  E E   E E E E  E E E  E
|-----------------|------------------|--------------------|
|-----------------|------------------|-0------------------|
|-----------------|-------------/2-5-|---5---7------------|
|-7---7-3-----7---|---7p6---7--------|------------6----9S=|
|---0-------------|-------8---0------|-----5--------------|
|---------4-4---5-|-5----------------|----------4---4-----|


  Gtr I
    PM    PM|   PM--|         PM|          PM  PM  PM
  E E E E E E E E   E E E E E E  E E   E E E E E E E E
|-----------------|------------------|------------------|
|-----------------|------------------|------------------|
|-----------------|----------------2-|-4p2--------------|
|-7-----------3---|---3-----3----3---|-------2---3---3S=|
|---------------0-|-0----------------|------------------|
|---5-5S1-4-1-----|-----4S1---1------|-----1---1---1----|
|
| Gtr II
|   PM    PM|   PM--|     PM  PM   PM      PM  PM  PM
| E E E E E E E E   E E E E E E  E E   E E E E E E E E
|-----------------|------------------|------------------|
|-----------------|------------------|-0----------------|
|-----------------|-------------/2-5-|---5--------------|
|-7---7-3-----7---|---7p6---7--------|-------6---7---6--|
|---0-------------|-------8---0------|------------------|
|---------4-4---5-|-5----------------|-----4---4---4----|


  Gtr I
    PM    PM|   PM--|         PM           PM     PM|
  E E E E E E E E   E E E E E E  E E   E E E E  E E E  E
|-----------------|------------------|-------------------|
|-----------------|------------------|-------------------|
|-----------------|------------------|-------------------|
|-7-----------3---|---3-----3----3S6-|-7p6---9h10-----12-|
|---------------0-|-0----------------|-------------------|
|---5-5S1-4-1-----|-----4S1---1------|-----7------7-7----|
|
| Gtr II
|   PM    PM|   PM--|     PM  PM   PM      PM   PM  PM
| E E E E E E E E   E E E E E E  E E   E E E E  E E E  E
|-----------------|------------------|-------------------|
|-----------------|------------------|-0-----------------|
|-----------------|-------------/2-5-|---5---7-----------|
|-7---7-3-----7---|---7p6---7--------|------------6----7-|
|---0-------------|-------8---0------|-----5-------------|
|---------4-4---5-|-5----------------|----------4---4----|


  Gtr I
  PM  PM  PM    PM--|   PM----|            PM  PM  PM    PM    PM    PM  PM
  E E E E E E E E   E E S S S S E E  E E   E E E E E E E E   E E E E E E E E
|-----------------|----------------------|-----------------|-----------------|
|-----------------|----------------------|-----------------|-----------------|
|---4---------4---|---4-------------10---|---4-------------|-----------4-----|
|-------3---3-----|----------------------|-------3---3h6---|-7---7-3-------3-|
|-2-------------2-|-2------------------8-|-2-------------0-|---0-----2-------|
|-----0---0-------|-----4-4-4-4-4-7------|-----0---0-------|-------------0---|
|
| Gtr II
| PM  PM  PM    PM--|   PM----|            PM  PM  PM    PM    PM|   PM  PM
| E E E E E E E E   E E S S S S E E  E E   E E E E E E E E   E E E E E E E E
|-----------------|----------------------|-----------------|-----------------|
|-----------------|----------------------|-----------------|-----------------|
|---4---------4---|---4------------------|---4---------4---|-5-----5---4-----|
|-------3---3-----|------------------7---|-------3---3-----|---------------3-|
|-2-------------2-|-2------------------5-|-2-------------2-|---0-2---2-------|
|-----0---0-------|-----1-1-1-1-1-4------|-----0---0-------|-------------0---|


  Gtr I
  PM    PM|   PM----|            PM  PM          PM--| ~~~~~~~~~~~~
  E E E E E E S S S S   E E  E E E E E E   E E E E E E Q    H    H      W
|---------------------|------------------|----------------|-----------|------*|
|---------------------|------------------|----------------|-----------|------*|
|-----4-----4---------|-----10-----4-----|-----------2----|------7----|------*|
|---3-----------------|----------------3-|-----3---3---3--|------7----|------*|
|-------2-2-----------|--------8S2-------|----------------|------5----|------*|
|-0-----------4-4-4-4-|-4-7----------0---|-1h4---1--------|-4----5----|------*|
|
| Gtr II
| PM    PM|   PM----|            PM  PM    PM    PM    ~~~~~~~~~~~~
| E E E E E E S S S S   E E  E E E E E E   E E E E E E Q    H    H      W
|---------------------|------------------|----------------|-----------|------*|
|---------------------|------------------|----------------|-----------|------*|
|-----4-----4---------|------------4-----|----------------|-----------|------*|
|---3-----------------|------7---------3-|---3-7---7-3-6--|-----------|------*|
|-------2-2-----------|--------5-2-------|-------0--------|-8----5----|------*|
|-0-----------1-1-1-1-|-1-4----------0---|-0--------------|-8----5----|------*|















04 - Diminished To be - =================================================================

05 - Epitaph - ==========================================================================

RIFF 1 Gtr. one (0:00) = both parts 2 times
|------------2-times--------------|--------------2-times--------------||
|---------------------------------|-----------------------------------||
|---------------------------------|-----------------------------------||
|---------------------------------|-----3------------2----------------||
|-2---2---2/3/5\3-3---2-----2-----|-----------------------5-----5-----||
|---1---3-----------0---0-1---0-1-|-0-1---0-1-1--1-1----0---0-1---0-1-||
    .   .           .   . .   . .   . .   . . .  . .    .   . .   . .
RIFF 1 Gtr. two (0:00) = both parts 2 times
|---------------------------------|-----------------------------------||
|---------------------------------|-----------------------------------||
|-4-----4---5/7-------------------|-----------10-7--------------------||
|---------------------------------|------------------10---9-----9-----||
|---0-2---2-----3-7---5-----5-----|-7-0-5-7-5------0----7---7-8---7-8-||
|-------------------0---0-1---0-1-|-----------------------------------||
    . .   .     .   .   . .   . .     . .   .      .    .   . .   . .
RIFF 2 GTR. one (0:16)
|------------------|-----2-times------|-----------------------------------
|------------------|------------------|-----------------------------------
|------------------|------------------|-----------------------------------
|------------------|------------------|-------------------3-h7p3\2h3p2-p0-
|-3----2-----2-----|-3----2-----2-----|-0-h3-h7p3-p0h3-h7-----------------
|----0---0-1---0-1-|----0---0-1---0-1-|-----------------------------------
     .   . .   . .      .   . .   . .
RIFF 2 Gtr. two (0:16)
|------------------|-----2-times------|------------8h12p8h12p8h12t17p12p8-
|------------------|------------------|---------10------------------------
|------------------|------------------|-------9---------------------------
|-10---9-----9-----|-10---9-----9-----|----10-----------------------------
|----7---7-8---7-8-|----7---7-8---7-8-|-12--------------------------------
|------------------|------------------|-----------------------------------
     .   . .   . .      .   . .   . .
RIFF 2 Gtr. one continue
 ------------------|-----2-times------|------------8h12p8h12p8h12t17p12p8-
 ------------------|------------------|---------10------------------------
 ------------------|------------------|-------9---------------------------
 -10---9-----9-----|-10---9-----9-----|----10-----------------------------
 ----7---7-8---7-8-|----7---7-8---7-8-|-12--------------------------------
 ------------------|------------------|-----------------------------------
     .   . .   . .      .   . .   . .

RIFF 2 Gtr. two continue
 ------------------|-----2-times------|-----------------------------------
 ------------------|------------------|-----------------------------------
 h9\---------------|------------------|-----------------------------------
 ------------------|------------------|-------------------3-h7p3\2h3p2-p0-
 ------2-----2-----|-3----2-----2-----|-0-h3-h7p3-p0h3-h7-----------------
 --------0-1---0-1-|----0---0-1---0-1-|-----------------------------------
         . .   . .      .   . .   . .

RIFF 2 Gtr. one continue
 ------------------|-----2-times------|-----------------------------------
 ------------------|------------------|-----------------------------------
 ------------------|------------------|-----------------------------------
 ------------------|------------------|-------------------3-h7p3\2h3p2-p0-
 -3----2-----2-----|-3----2-----2-----|-0-h3-h7p3-p0h3-h7-----------------
 ----0---0-1---0-1-|----0---0-1---0-1-|-----------------------------------
     .   . .   . .      .   . .   . .

RIFF 2 Gtr. two continue
 ------------------|------------------|------------8h12p8h12p8h12t17p12p8-
 -5----3-----3-----|-5----3-----5-----|---------10------------------------
 ------------------|------------------|-------9---------------------------
 ----2---2-3---2-3-|----2---2-3---2-3-|----10-----------------------------
 ------------------|------------------|-12--------------------------------
 ------------------|------------------|-----------------------------------
     .   . .   . .      .   . .   . .

RIFF 2 Gtr. one continue
 ------------------|-----2-times------|----------------------------------||
 ------------------|------------------|----------------------------------||
 ------------------|------------------|----------------------5---4-----4-||
 -10---9-----9-----|-10---9-----9-----|--------------3h7p3\2---2—--2-3---||
 ----7---7-8---7-8-|----7---7-8---7-8-|-0h3h7p3p0h3h7--------------------||
 ------------------|------------------|----------------------------------||
     .   . .   . .      .   . .   . .                          .   . .

RIFF 2 Gtr. two continue
 ------------------|------------------|----------------------------------||
 ------------------|------------------|----------------------5---3-----3-||
 h9\---------------|------------------|----------------------------------||
 ------------------|-2----------------|--------------3h7p3\2---2---2-3---||
 ------5-----5-----|------5-----5-----|-0h3h7p3p0h3h7--------------------||
 --------0-1---0-1-|----0---0-1---0-1-|----------------------------------||
         . .   . .      .   . .   . .                          .   . .


RIFF 3 Gtr. one (0:33)
|---------------------------------------------------------------------
|---------------------------------------------------------------------
|----------------------------10---------------------------------------
|---------------8-------------------------3---2-------5---5-----5-----
|-----------7-----7---10-0-0------------4---5---5-4/7---7---8-------8-
|-0-5-0-5-6---5-----5---------------0-1-------------------------------
  . . . . .   .     .    . .        . . .   .   .       .   .   .   .

RIFF 3 Gtr. two (0:33)
|---------------------------------------------------------------------
|---------------------------------------------------------------------
|---------------------------------------------------------------------
|-----------------------------------------------------9---9-----------
|-7---7-----7-----7---10-----8------7---7-----7-----7---7---8---10--8-
|---5---5-6---5-6---5----5-5----------5---5-6---5-6-------------------
    .   . .   . .   .    . .          .   . .   . . .   .   .   .   .

RIFF 3 Gtr. one continue
 -----------------------------------------------------------||
 -----------------------------------------------------------||
 -----------------6----------7------------------------------||
 -------3---2-------------------------------------8-2-5-3-4-||
 -----4---5---5-4---4-7--4-5------------------7-------------||
 -0-1-------------------------------0-5-0-5-6---5-----------||
  . . .   .   .     .      .        . . . . .   .   . . . .

RIFF 3 Gtr. two continue
 -----------------------------------------------------------||
 -----------------------------------------------------------||
 -----------------------------------------------------------||
 ---------------------------------------------------2-5-3-4-||
 -7---7-----7-----7---10-----8------7---7-----7-------------||
 ---5---5-6---5-6---5----5-6----------5---5-6---5-6---------||
    .   . .   . .   .    . .          .   . .   . . . . . .

RIFF 4 BOTH guitars (0:40)
|------------------------------------------------------------
|------------------------------------------------------------
|------------------------------------------------------------
|---3-----------------------------4-3---------------3--------
|-2-------------4-------------------------------4---3--------
|-----1-1-1-1-1---1-1-1-1-1-0-1-2-----1-1-1-1-1---1-1--------
      . . . . .   . . . . . . . .     . . . . .   .

 ------------------------------------------------------------||
 ------------------------------------------------------------||
 ------------------------------------------------------------||
 ---3-----------------------------4-3------------------------||
 ---------------4-------------------------------4------------||
 -----1-1-1-1-1---1-1-1-1-1-0-1-2-----1-1-1-1-1---1-0--------||
      . . . . .   . . . . . . . .     . . . . .   .

RIFF 4     a third guitar fades in at the end of the part...
|-------------------------------------------------------15---||
|-------------------------------------------------------17~--||
|------------------------------------------------------------||
|------------------------------------------------------------||
|------------------------------------------------------------||
|------------------------------------------------------------||

again RIFF 3 (0:50)
again RIFF 4 (0:57)

RIFF 5 GTR. one (1:06) = 3 times
|---------------------------------------------------------||
|---------------------------------------------------------||
|----------0---------------------------0------------------||
|-------4---------------------------3---------------------||
|----2---------------------------3------------------------||
|-0---------------------------1---------------------------||

RIFF 5 GTR. two (1:06) = 3 times
|--------------------------------------------|-only-1-&-3-||
|--------------------------------------------|------------||
|--------------------------------------------|------------||
|-2---------------------------3--------------|------------||
|-2---------------------------3--------------|--------ph--||
|-0-----------------------2~--1--------------|--------1---||

RIFF 5 GTR. one (1:21)   last time
|---------------------------------------------------------||
|---------------------------------------------------------||
|----------0---------------------h4-/-7-------------------||
|-------4-----------------------0---------------9---9---9-||
|----2------------------------2-----/-5-------------------||
|-0-------------------------------------------7---7---7---||
                                              .   .   .
RIFF 5 GTR. two (1:21)   last time
|---------------------------------------------------------||
|---------------------------------------------------------||
|--------------------------------h4-/-7---------7---7---7-||
|-2-----------------------------0-------------------------||
|-2---------------------------2-----/-5-------5---5---5---||
|-0-----------------------2~------------------------------||
                                              .   .   .

RIFF 6 GTR. one (1:26) = 2 times
|---------------------------------------------------------
|---------------------------------------------------------
|-----------------------------------4-----7-----4-----7---
|-------3-----5-----3-----5-------------------------------
|-----------------------------3-2-2---2-2---2-2---2-2---2-
|-1-1-1---1-1---1-1---1-1---1-----------------------------
  . . .   . .   . .   . .   . . . .   . .   . .   . .   .

RIFF 6 GTR. two (1:26) = 2 times
|---------------------------------------------------------
|---------------------------------------------------------
|-----------------------------------4-----7-----4-----7---
|-------3-----5-----3-----5---ph--------------------------
|-----------------------------3\2-2---2-2---2-2---2-2---2-
|-1-1-1---1-1---1-1---1-1---1-----------------------------
  . . .   . .   . .   . .   .     .   . .   . .   . .   .

RIFF 6 GTR. one continue
 ---------------------------------------------------------||
 ---------------------------------------------------------||
 -----------------------------------4-----7---4-----4---4-||
 -------3-----5-----3-----5-------------------------------||
 -----------------------------3-2-2---2-2---2-2---2---2---||
 -1-1-1---1-1---1-1---1-1---1-----------------------------||
  . . .   . .   . .   . .   . . . .   . .   . .   .   .

RIFF 6 GTR. two continue
 ---------------------------------------------------------||
 ---------------------------------------------------------||
 -----------------------------------4-----7---4-----7---7-||
 -------3-----5-----3-----5-------------------------------||
 -ph--------------------------3-2-2---2-2---2-2---5---5---||
 -3\1-1---1-1---1-1---1-1---1-----------------------------||
      .   . .   . .   . .   . . . .   . .   . .   .   .


RIFF 7 GTR. one (1:40)
|-------------------------------------------------------------------------|
|-------------------------------------------------------------------------|
|-----------------------------------------------------------------4----7--|
|3----4---4-3----4---4-3---------------3----4---4-3----4---4--------------|
|----------------------------7-----7------------------------2-2-2---2-2--2|
|1--1---1---1--1---1-----0-0---0-0---0-1--1---1---1--1---1----------------|
    .   .      .   .     . .   . .   .    .   .      .   .  . . .   . .  .

RIFF 7 GTR. two (1:40) same as GTR. one
|-------------------------------------------------------------------------|
|-------------------------------------------------------------------------|
|-----------------------------------------------------------------4----7--|
|3----4---4-3----4---4-3---------------3----4---4-3----4---4--------------|
|----------------------------7-----7------------------------2-2-2---2-2--2|
|1--1---1---1--1---1-----0-0---0-0---0-1--1---1---1--1---1----------------|
    .   .      .   .     . .   . .   .    .   .      .   .  . . .   . .  .

RIFF 7 GTR. one continue
|-------------------------------------------------------------------------|
|-------------------------------------------------------------------------|
|5----6---6-5----6---6-------4-----4---5----6---6-5----6---64----5---5---7|
|-------------------------------------------------------------------------|
|3--3---3---3--3---3---2-2-2---2-2---2-3--3---3---3--3---3--2--2---2---5--|
|-------------------------------------------------------------------------|
    .   .      .   .   . . .   . .   .    .   .      .   .     .   .   .

RIFF 7 GTR. two continue
|-------------------------------------------------------------------------|
|-------------------------------------------------------------------------|
|----------------------------4-----4------------------------4----5---5---7|
|3----------3--------------------------3----------3-----------------------|
|-----4---4------4---4-2-2-2---2-2---2------4---4------4---42--2---2---5--|
|1--1---1---1--1---1-------------------1--1---1---1--1---1----------------|
    .   .      .   .   . . .   . .   .    .   .      .   .     .   .   .

again RIFF 6 (1:50)

RIFF 7 GTR. one (1:57)
|-------------------------------------------------------------------------|
|-------------------------------------------------------------------------|
|-----------------------------------------------------------------4----7--|
|3----4---4-3----4---4-3---------------3----4---4-3----4---4--------------|
|----------------------------7-----7------------------------2-2-2---2-2--2|
|1--1---1---1--1---1-----0-0---0-0---0-1--1---1---1--1---1----------------|
    .   .      .   .     . .   . .   .    .   .      .   .  . . .   . .  .
RIFF 7 GTR. two (1:57) same as GTR. one
|-------------------------------------------------------------------------|
|-------------------------------------------------------------------------|
|-----------------------------------------------------------------4----7--|
|3----4---4-3----4---4-3---------------3----4---4-3----4---4--------------|
|----------------------------7-----7------------------------2-2-2---2-2--2|
|1--1---1---1--1---1-----0-0---0-0---0-1--1---1---1--1---1----------------|
    .   .      .   .     . .   . .   .    .   .      .   .  . . .   . .  .
RIFF 7 GTR. one continue
|-------------------------------------------------------------------------|
|-------------------------------------------------------------------------|
|5----6---6-5----6---6-------4-----4---5----6---6-5----6---64----5---5-/-7|
|-------------------------------------------------------------------------|
|3--3---3---3--3---3---2-2-2---2-2---2-3--3---3---3--3---3--2--2---2---/-5|
|-------------------------------------------------------------------------|
    .   .      .   .   . . .   . .   .    .   .      .   .     .   .

RIFF 7 GTR. two continue
|-------------------------------------------------------------------------|
|-------------------------------------------------------------------------|
|----------------------------4-----4------------------------4----5---5-/-7|
|3----------3--------------------------3----------3-----------------------|
|-----4---4------4---4-2-2-2---2-2---2------4---4------4---42--2---2---/-5|
|1--1---1---1--1---1-------------------1--1---1---1--1---1----------------|
    .   .      .   .   . . .   . .   .    .   .      .   .     .   .

RIFF 8 GTR. one (2:07) = 4 times
|----------------------------------------|-1-&-3-time|-2-&-4-time||
|----------------------------------------|-----------|-----------||
|----------------------------------------|-5---------|-5-----5---||
|----------------------------------------|-5---------|-5---------||
|--------4--------------4----------------|-3---------|-3-----3---||
|-1233~--0-----1233~----0---1233~--0-----|-------4~--|-----------||
  ...          ...          ...

RIFF 8 GTR. two (2:07) = 4 times (pick the 0 on the d string lightly)
|----------------------------------------|-1-&-3-time|-2-&-4-time||
|----------------------------------------|-----------|-----------||
|----------------------------------------|-----------|-------8---||
|----0------------0------------0---------|-5---------|-5---------||
|--------4--------------4----------------|-3---------|-3-----6---||
|-123----0-----123------0---123----0-----|-3-----4~--|-3---------||
  ...          ...          ...

SOLO

RIFF 9 Rhythm under SOLO GTR. one (2:39) = 4 times
|-----------------------------------------------|-1-&-3-time|-2-&-4-time||
|-----------------------------------------------|-----------|-----------||
|-----------------------------------------------|-5---------|-5-----5---||
|-------4-----4-------3-----3---------4-----4---|-5---------|-5---------||
|-------------4-------------3---------------4---|-3---------|-3-----3---||
|-2-2-2---2-2-2---1-1---1-1-1---2-2-2---2-2-2---|-------4~--|-----------||
  . . .   . .     . .   . .     . . .   . .
RIFF 9 Rhythm under SOLO GTR. two (2:39) = 4 times
|-----------------------------------------------|-1-&-3-time|-2-&-4-time||
|-----------------------------------------------|-----------|-----------||
|-----------------------------------------------|-----------|-------8---||
|-------4-----4-------3-----3---------4-----4---|-5---------|-5---------||
|-------------4-------------3---------------4---|-3---------|-3-----6---||
|-2-2-2---2-2-2---1-1---1-1-1---2-2-2---2-2-2---|-3-----4~--|-3---------||
  . . .   . .     . .   . .     . . .   . .

SOLO continue

RIFF 10 Rhythm under SOLO   BOTH guitars (3:11)
|---------------------------------------------------------
|---------------------------------------------------------
|-----------------------------------5-----8-----5-----8---
|-------4-----6-----4-----6-------------------------------
|-----------------------------4-3-3---3-3---3-3---3-3---3-
|-2-2-2---2-2---2-2---2-2---2-----------------------------
  . . .   . .   . .   . .   . . . .   . .   . .   . .   .
 ---------------------------------------------------------
 ---------------------------------------------------------
 -----------------------------------5-----8---5-----8---8-
 -------4-----6-----4-----6-------------------------------
 -----------------------------4-3-3---3-3---3-3---6---6---
 -2-2-2---2-2---2-2---2-2---2-----------------------------
  . . .   . .   . .   . .   . . . .   . .   .     .   .
 ---------------------------------------------------------
 ---------------------------------------------------------
 -----------------------------------5-----8-----5-----8---
 -------4-----6-----4-----6-------------------------------
 -----------------------------4-3-3---3-3---3-3---3-3---3-
 -2-2-2---2-2---2-2---2-2---2-----------------------------
  . . .   . .   . .   . .   . . . .   . .   . .   . .   .
 ---------------------------------------------------------||
 ---------------------------------------------------------||
 -----------------------------------5-----8---5-----6---6-||
 -------4-----6-----4-----6-------------------------------||
 -----------------------------4-3-3---3-3---3-3---4---4---||
 -2-2-2---2-2---2-2---2-2---2-----------------------------||
  . . .   . .   . .   . .   . . . .   . .   .     .   .

RIFF 7 GTR. one (3:25)
|-------------------------------------------------------------------------|
|-------------------------------------------------------------------------|
|-----------------------------------------------------------------4----7--|
|3----4---4-3----4---4-3---------------3----4---4-3----4---4--------------|
|----------------------------7-----7------------------------2-2-2---2-2--2|
|1--1---1---1--1---1-----0-0---0-0---0-1--1---1---1--1---1----------------|
    .   .      .   .     . .   . .   .    .   .      .   .  . . .   . .  .

RIFF 7 GTR. two (3:25) same as GTR. one
|-------------------------------------------------------------------------|
|-------------------------------------------------------------------------|
|-----------------------------------------------------------------4----7--|
|3----4---4-3----4---4-3---------------3----4---4-3----4---4--------------|
|----------------------------7-----7------------------------2-2-2---2-2--2|
|1--1---1---1--1---1-----0-0---0-0---0-1--1---1---1--1---1----------------|
    .   .      .   .     . .   . .   .    .   .      .   .  . . .   . .  .

RIFF 7 GTR. one continue
|--------------------------------------
|--------------------------------------
|5----6---6-5----6---6-------4-----4---
|--------------------------------------
|3--3---3---3--3---3---2-2-2---2-2---2-
|--------------------------------------
    .   .      .   .   . . .   . .   .

RIFF 7 GTR. two continue
|--------------------------------------
|--------------------------------------
|----------------------------4-----4---
|3----------3--------------------------
|-----4---4------4---4-2-2-2---2-2---2-
|1--1---1---1--1---1-------------------
    .   .      .   .   . . .   . .   .

RIFF 7 GTR. one continue
other ending and directly jump into RIFF 1 again
|-------------------------------------------------------------||
|-------------------------------------------------------------||
|5----6---6-5----6---6------5---5---7-ph--------------------5-||
|----------------------3--------------5-bh--br-3----5---5-----||
|3--3---3---3--3---3------2---2---5---------------------------||
|----------------------1-----------------------1--1---1---1---||
    .   .      .   .      .   .   .               .   .   .



RIFF 7 GTR. two continue
other ending and directly jump into RIFF 1 again
|-------------------------------------------------------------||
|-------------------------------------------------------------||
|5----6---6-5----6---6------5---5---7---------------5---5---2-||
|----------------------3-----------------------7--------------||
|3--3---3---3--3---3------2---2---0---------------0---0-------||
|----------------------1--------------4~----0--5----------1---||
    .   .      .   .      .   .   .               .   .   .

again RIFF 1 (3:37)

again RIFF 2 (3:53)

 RIFF 2 ending GTR. one
 ------------------|-----2-times------|----------------------------------||
 ------------------|------------------|----------------------------------||
 ------------------|------------------|----------------------5---4-----4-||
 -10---9-----9-----|-10---9-----9-----|--------------3h7p3\2---2—--2-3---||
 ----7---7-8---7-8-|----7---7-8---7-8-|-0h3h7p3p0h3h7--------------------||
 ------------------|------------------|----------------------------------||
     .   . .   . .      .   . .   . .                          .   . .

 RIFF 2 ending GTR. two
 ------------------|------------------|----------------------------------||
 ------------------|------------------|----------------------5---3-----3-||
 h9\---------------|------------------|----------------------------------||
 ------------------|-2----------------|--------------3h7p3\2---2---2-3---||
 ------5-----5-----|------5-----5-----|-0h3h7p3p0h3h7--------------------||
 --------0-1---0-1-|----0---0-1---0-1-|----------------------------------||
         . .   . .      .   . .   . .                          .   . .











06 - Only Ashes - ==========================================================================

07 - Seven - ===============================================================================

Q=200
 8/4                           6/4
  Gtr I
  PM----|      PM----|   ~~~    PM-|
|-----------------------------|---------------------------|
|-----------------------------|---------------------------|
|-----------------------------|--------------------<5>----|
|-6--6--6------6--6--6--------|-6--6--10p6h8-------<4>----|
|-3--3--3--[7]-3--3--3--[7]---|-3--3----------------------|
|-----------------------------|--------------0------------|
|
| Gtr II
| PM----|      PM----|   ~~~    PM-|
|-----------------------------|---------------------------|
|-----------------------------|---------------------------|
|-----------------------------|---------------------------|
|-----------------------------|---------------------------|
|----------[3]----------[3]---|---------------------------|
|-1--1--1------1--1--1--------|-1--1---4p1h3-0-(0)--------|


 8/4                             6/4
  PM-----|      PM------|  ~~~    PM--|
|-------------------------------|---------------------0----|
|-------------------------------|--------------------------|
|-------------------------------|--------------------------|
|-----6--6------6--6------------|-----6--10p6-8------------|
|-3-3-3--3--[7]-3--3--3-3-[7]---|-3-3-3--------------------|
|-------------------------------|---------------0----------|
|
| PM-----|      PM------|  ~~~    PM--|
|-------------------------------|--------------------------|
|-------------------------------|--------------------------|
|-------------------------------|--------------------------|
|-------------------------------|--------------------------|
|-----------[3]-----------[3]---|--------------------------|
|-1-1-1--1------1--1--1-1-------|-1-1-1---4p1h3-0-(0)------|


   8/4
    Gtr I
    PM----|      PM----|   ~~~
||------------------------------|
||o-----------------------------|
||------------------------------|
||--6--6--6------6--6--6--------|
||o-3--3--3--[7]-3--3--3--[7]---|
||------------------------------|
|
|   Gtr II
|   PM----|      PM----|   ~~~
||------------------------------|
||o-----------------------------|
||------------------------------|
||------------------------------|
||o----------[3]----------[3]---|
||--1--1--1------1--1--1--------|


 1.                           2.
 6/4
  PM-|                         PM-|
|---------------------------||--------------------0----|
|--------------------------o||-------------------------|
|--------------------<5>----||-------------------------|
|-6--6--10p6h8-------<4>----||-6--6--10p6h8------------|
|-3--3---------------------o||-3--3--------------------|
|--------------0------------||--------------0----------|
|
| PM-|                         PM-|
|---------------------------||-------------------------|
|--------------------------o||-------------------------|
|---------------------------||-------------------------|
|---------------------------||-------------------------|
|--------------------------o||-------------------------|
|-1--1---4p1h3-0-(0)--------||-1--1---4p1h3-0-(0)------|


 Riff B (0:32)
 5/4              4/4
|----------------|----------|-------------------|---------------|
|----------------|----------|---0---------------|---------------|
|----------------|----------|-9-----------------|---------------|
|----------------|----------|-----10------------|---------------|
|--2--------3----|----------|--------12-(12)----|-(12)----------|
|----------------|-0--------|-------------------|--------5-4----|
|
|      ~                                                 PM|
|----------------|----------|-------------------|---------------|
|----------------|----------|---0---------------|---------------|
|----------------|----------|-9-----------------|---------------|
|----------------|----------|-----10------------|---------------|
|----------------|-2--------|-------------------|--------3-2----|
|-(0)--3---------|-0--------|---------1--(1)----|--(1)---1-0----|


   Riff C (0:39)
    Q=180
   7/4
    PM----------------------|       PM-------------------
||------------------------------------------------------|
||o-----------------------------------------------------|
||------------------------------------------------------|
||--------------------2-3-5-------5---------------------|
||o-------------1-2-4---------<7>-----------------------|
||--1-1-1-1-1-0-------------0-------3p0h3p0h3-4-1h3p1p0-|
|
|   PM--------------------|         PM-------------------
||------------------------------------------------------|
||o-----------------------------------------------------|
||--------------------------------0---------------------|
||-----------------------------6----5p2h5p2-5h6-3h5-3p2-|
||o-------------------2-3-5-4---------------------------|
||--1-1-1-1-1-0-1-2-4-----------------------------------|


 1.
 -------------------------|     PM------|
|---------------------------------------------||
|-----------------------------8--------------o||
|---------------------------------------------||
|-------------------2-3-5-------6-6-6-6-6-6---||
|-------------1-2-4---------7----------------o||
|-1-1-1-1-1-0-------------0-------------------||
|
|-----------------------|       PM------|
|---------------------------------------------||
|--------------------------------------------o||
|-----------------------------0---------------||
|---------------------------4-----------------||
|-------------------2-3-5-4------------------o||
|-1-1-1-1-1-0-1-2-4-------------1-3-4-4-4-1---||


  2.
  PM----------------------|     PM------|
|-----------------------------------------------|
|-----------------------------8-----------------|
|-----------------------------------------------|
|-------------------2-3-5-------3-3-3-3-3-2-----|
|-------------1-2-4---------7-------------------|
|-1-1-1-1-1-0-------------0---------------------|
|
| PM--------------------|       PM------|
|-----------------------------------------------|
|-----------------------------------------------|
|-----------------------------0-----------------|
|---------------------------4-------------------|
|-------------------2-3-5-4---------------------|
|-1-1-1-1-1-0-1-2-4-------------1-1-1-1-1-0-----|


   Riff D (0:49)
    Q=240
   4/4
    PM--|    PM   PM     PM  PM  PM
||---------------------|-----------------|
||o--------------------|-----------------|
||---------------------|-----------------|
||---------9----9----7-|---6---6---7-6---|
||o--------------------|---------------8-|
||--0-1-0----7----5----|-4---4---4-------|
|
|   PM--|    PM   PM     PM  PM  PM
||---------------------|-----------------|
||o--------------------|-----------------|
||---------------------|-----------------|
||--------12---12---10-|---6---6---7-6---|
||o--------------------|---------------8-|
||--0-1-0----7----5----|-4---4---4-------|


  PM  PM    PM|             PM   PM  PM
|-----------------|--------------------|
|-----------------|--------------------|
|-----------------|--------------------|
|---6---7h9-----9-|-----------10---9---|
|-----------------|-0h12h14------------|
|-4---4-----7-8---|---------7----7---1-|
|
| PM  PM    PM|     PM      PM   PM  PM
|-----------------|--------------------|
|-----------------|--------------------|
|-----------------|----------------7---|
|---6---7p6-----7-|----9p=6----7-------|
|-----------------|--------------------|
|-4---4-----4-5---|-4-------4----4---1-|


  PM--|    PM   PM     PM  PM  PM        PM  PM    PM|
|--------------------|-----------------|-----------------|--------------------|
|--------------------|-----------------|-----------------|--------------------|
|--------------------|-----------------|-----------------|-----------------7--|
|--------9----9----7-|---6---6---7-6---|---6---7h9-----9-|-----------------7--|
|--------------------|---------------8-|-----------------|-14p12p==0-6--3--5--|
|-0-1-0----7----5----|-4---4---4-------|-4---4-----7-8---|-----------4--1-----|
|
| PM--|    PM   PM     PM  PM  PM        PM  PM    PM|      PM
|--------------------|-----------------|-----------------|--------------------|
|--------------------|-----------------|-----------------|--------------------|
|--------------------|-----------------|-----------------|--------------------|
|-------12---12---10-|---6---6---7-6---|---6---7p6-----7-|-------9---------7--|
|--------------------|---------------8-|-----------------|-----------6--3--5--|
|-0-1-0----7----5----|-4---4---4-------|-4---4-----4-5---|--4--------4--1--5--|


 7/4
    PM|   PM    PM|   PM  PM      PM|   PM    PM|   PM
|-----------------------------|----------------------------|
|-----------------------------|----------------------------|
|-----------7-----------------|-----------7----------------|
|-6-----3-----6-----6---6---6-|-6-----3-----6-----6---3----|
|---------4-------------------|---------4------------------|
|---4-1---------4-4---4---4---|---4-1---------4-4---1---4--|
|
|   PM|   PM    PM|   PM  PM      PM|   PM    PM|   PM
|-----------------------------|----------------------------|
|-----------------------------|----------------------------|
|-----------7-----------------|-----------7----------------|
|-6-----3-----6-----6---3---2-|-6-----3-----6-----6---3----|
|---------4-------------------|---------4---------------2--|
|---4-1---------4-4---1---0---|---4-1---------4-4---1---0--|


 7/4
    PM|   PM    PM|   PM  PM      PM|   PM    PM|   PM    PM
|-----------------------------|------------------------------||
|-----------------------------|-----------------------------o||
|-----------7-----------------|-----------7-7-----7---4-4----||
|-6-----3-----6-----6---6---6-|-6-----3----------------------||
|---------4-------------------|---------4-----5-5---2-------o||
|---4-1---------4-4---4---4---|---4-1---------------------1--||
|
|   PM|   PM    PM|   PM  PM      PM|   PM    PM|   PM  PM
|-----------------------------|------------------------------||
|-----------------------------|-----------------------------o||
|-----------7-----------------|-----------7------------------||
|-6-----3-----6-----6---3---2-|-6-----3-----6-----6---3---3--||
|---------4-------------------|---------4-------------------o||
|---4-1---------4-4---1---0---|---4-1---------4-4---1---1----||


 Riff A (1:19)


 Riff B/Beginning of solo (1:35)
                                              Q
 5/4            4/4
  Gtr I
|--------------|----------|-------------------|
|--------------|----------|---0---------------|
|--------------|----------|-9-----------------|
|--------------|----------|-----10------------|
|-2-------3----|----------|--------12-(12)----|
|--------------|-0--------|-------------------|
|
| Gtr II
|    ~
|--------------|----------|-------------------|
|--------------|----------|---0---------------|
|--------------|----------|-9-----------------|
|--------------|----------|-----10------------|
|--------------|-2--------|-------------------|
|-0--3---------|-0--------|---------1--(1)----|
|
| Gtr III
|--------------|----------|-------------------|
|--------------|----------|-------------------|
|--------------|----------|-------------------|
|--------------|----------|-------------------|
|--------------|----------|-------------------|
|--------------|----------|-------------------|


 =240
 6/4
|------------------------------------------------------------|
|------------------------------------------------------------|
|------------------------------------------------------------|
|------------------------------------------------------------|
|-(12)-------------------------------------------------------|
|-------------5--4-------------------------------------------|
|
|             PM|
|------------------------------------------------------------|
|------------------------------------------------------------|
|------------------------------------------------------------|
|------------------------------------------------------------|
|-------------3--2-------------------------------------------|
|--(1)--------1--0-------------------------------------------|
|
|---------------------24-20-------------------------16-19----|
|------------21-23-24-------21-------------------18----------|
|--21--22-24-------------------22-------------17-------------|
|---------------------------------22-------18----------------|
|------------------------------------23-20-------------------|
|------------------------------------------------------------|




 4/4
                     PM---|
|---------------------------------------|
|---------------------------------------|
|-------------------------------1-------|
|---------------------------------------|
|--3----------------------3-------------|
|--1-----------------1------------------|
|
|                    PM---|
|---------------------------------------|
|---------------------------------------|
|-------------------------------1-------|
|---------------------------------------|
|--3----------------------3-------------|
|--1-----------------1------------------|
|
|-20-18-16----16-18-20-18---16----------|
|----------20------------------20-18-17-|
|---------------------------------------|
|---------------------------------------|
|---------------------------------------|
|---------------------------------------|


                  PM---|
|------------------------------------------|
|------------------------------------------|
|-(1)------------------------1-------------|
|------------------------------------------|
|-----------------------3------------------|
|-----------------1------------------------|
|
|                 PM---|
|------------------------------------------|
|------------------------------------------|
|-(1)------------------------1-------------|
|------------------------------------------|
|-----------------------3------------------|
|-----------------1------------------------|
|
|------------------------------------------|
|------------------------------------------|
|-18--17-15----15---17-15------------------|
|-----------18------------18---17-15-------|
|------------------------------------19-16-|
|------------------------------------------|


 6/4
                 PM---|
|--------------------------------------------------------------|
|--------------------------------------------------------------|
|---------------------------1----------------------------------|
|--------------------------------------------------------------|
|--3-------------------3---------------------------------------|
|----------------1---------------------3-----0-----------------|
|
|                PM---|
|--------------------------------------------------------------|
|--------------------------------------------------------------|
|---------------------------1----------------------------------|
|--------------------------------------------------------------|
|--3-------------------3---------------------2-----------------|
|----------------1---------------------3-----------------------|
|
|------------------13-15-12--------------------------------15--|
|-------------15--------------14------------------------17-----|
|----------15--------------------13-12---------------15--------|
|-------14-------------------------------14-------15-----------|
|----16-------------------------------------15-17--------------|
|-18-----------------------------------------------------------|


 4/4
                     PM---|
|---------------------------------------|
|---------------------------------------|
|-------------------------------1-------|
|---------------------------------------|
|--3----------------------3-------------|
|--1-----------------1------------------|
|
|                    PM---|
|---------------------------------------|
|---------------------------------------|
|-------------------------------1-------|
|---------------------------------------|
|--3----------------------3-------------|
|--1-----------------1------------------|
|
|-18-20---------------------------------|
|-------21---------------------------17-|
|----------22---------------------17----|
|-------------22---------------18-------|
|----------------23-20------20----------|
|----------------------20---------------|


                                              6/4
                  PM---|                                 PM|
|--------------------------------------------|-------------------------------|
|--------------------------------------------|-------------------------------|
|-(1)----------------------1-----------------|-----------------1-------------|
|--------------------------------------------|-------------------------------|
|-----------------------3--------------------|--3-----------3----------------|
|-----------------1--------------------------|-----------1-----------3--0----|
|
|                 PM---|                                 PM|
|--------------------------------------------|-------------------------------|
|--------------------------------------------|-------------------------------|
|-(1)----------------------1-----------------|-----------------1-------------|
|--------------------------------------------|-------------------------------|
|-----------------------3--------------------|--3-----------3-----------2----|
|-----------------1--------------------------|-----------1-----------3-------|
|
|                                                                       ~~
|-17--20----20-24---20----20-(20)b21r(20)-18-|-20----------------------------|
|--------22------------21--------------------|----21-20-21-18h20----23-------|
|--------------------------------------------|-------------------21----21----|
|--------------------------------------------|-------------------------------|
|--------------------------------------------|-------------------------------|
|--------------------------------------------|-------------------------------|


 4/4
               PM--|                        PM--|
|--------------------------|-------------------------------|
|--------------------------|-------------------------------|
|----------------------1---|-(1)-------------------1-------|
|--------------------------|-------------------------------|
|-3----------------3-------|---------------------3---------|
|-1------------1-----------|----------------1--------------|
|
|              PM--|                        PM--|
|--------------------------|-------------------------------|
|--------------------------|-------------------------------|
|----------------------1---|-(1)-------------------1-------|
|--------------------------|-------------------------------|
|-3----------------3-------|---------------------3---------|
|-1------------1-----------|----------------1--------------|
|
|--------------------------|-------------------------------|
|--------------------------|-------------------------------|
|--------------------------|-------------------------------|
|--------------------------|---------6h8h10-8p6------------|
|-------7h8h10-8p7---------|--7h8h10------------10-7h8h10--|
|-6h8h9------------9-6h8h9-|-------------------------------|


 6/4
         PM|
|------------------------------------------------|
|------------------------------------------------|
|-------------1----------------------------------|
|------------------------------------------------|
|-3--------3-------------------------------------|
|--------1--------3-0----------------------------|
|
|        PM|
|------------------------------------------------|
|------------------------------------------------|
|-------------1----------------------------------|
|------------------------------------------------|
|-3--------3--------2----------------------------|
|--------1--------3------------------------------|
|
|------------------------------------------------|
|------------------------------------------------|
|------------------------------------------------|
|-6h8h10-8p6------------------8h10h11-10p8-------|
|------------10-7h8p7-8h10h11--------------11----|
|------------------------------------------------|


 4/4
                   PM--|                            PM---|
|-----------------------------------|---------------------------------------|
|-----------------------------------|---------------------------------------|
|---------------------------1-------|-(1)---------------------1-------------|
|-----------------------------------|---------------------------------------|
|-3--------------------3------------|---------------------3-----------------|
|-1----------------1----------------|---------------1-----------------------|
|
|                  PM--|                            PM---|
|-----------------------------------|---------------------------------------|
|-----------------------------------|---------------------------------------|
|---------------------------1-------|-(1)---------------------1-------------|
|-----------------------------------|---------------------------------------|
|-3--------------------3------------|---------------------3-----------------|
|-1----------------1----------------|---------------1-----------------------|
|
|-----------------------------------|---------------------------------------|
|-----------------------------------|----------9h11h==13-11p9---------------|
|---------9h10h12-10p9--------------|--9h10h12------------------12-10h12h13-|
|-8h10h11----------------11-8h10h11-|---------------------------------------|
|-----------------------------------|---------------------------------------|
|-----------------------------------|---------------------------------------|


 6/4
                 PM---|
|------------------------------------------------------------|
|------------------------------------------------------------|
|---------------------------1--------------------------------|
|------------------------------------------------------------|
|--3-------------------3-------------------------------------|
|----------------1---------------------3-----0-----------0---|
|
|                PM---|
|------------------------------------------------------------|
|------------------------------------------------------------|
|---------------------------1--------------------------------|
|------------------------------------------------------------|
|--3-------------------3---------------------2-----------2---|
|----------------1---------------------3---------------------|
|
|                                                        ~~
|-------------------------------------------13----------12---|
|-11h13h14-13p11-----------------11h13h==14----11h13h14------|
|------------------13-10h12h==13-----------------------------|
|------------------------------------------------------------|
|------------------------------------------------------------|
|------------------------------------------------------------|




 8/4                                   6/4
  Gtr I
   PM-----|         PM---|   ~~~         PM-----|
|-------------------------------------|------------------------------|
|-------------------------------------|------------------------------|
|-------------------------------------|------------------------------|
|--6----6-6---------6----6------------|--6----6-6--10p6h=8-----------|
|--3----3-3----[7]--3----3--[7]-------|--3----3-3--------------------|
|-------------------------------------|---------------------0-(0)----|
|
| Gtr II
|  PM-----|         PM---|   ~~~         PM-----|
|-------------------------------------|------------------------------|
|-------------------------------------|------------------------------|
|-------------------------------------|------------------------------|
|-------------------------------------|------------------------------|
|--------------[3]----------[3]-------|------------------------------|
|--1----1-1---------1----1------------|--1----1-1---4p1h=3--0-(0)----|
|
| Gtr IV
|                   ~~                                         ~~~
|-------------------------------------|------------------------------|
|-18b21r=======18---------------------|-17b18r=======================|
|------------------17-----------13-17-|-----------------18-17-16-----|
|---------------------------15--------|------------------------------|
|-------------------------------------|------------------------------|
|-------------------------------------|------------------------------|


 8/4
  Gtr I
   PM---|                PM---------|      ~~~
|---------------------------------------------------|
|---------------------------------------------------|
|---------------------------------------------------|
|--6--6--6---------------6-----------6--------------|
|--3--3--3----------[7]--3-----------3----[7]-------|
|---------------------------------------------------|
|
| Gtr II
|  PM---|                PM---------|      ~~~
|---------------------------------------------------|
|---------------------------------------------------|
|---------------------------------------------------|
|---------------------------------------------------|
|-------------------[3]-------------------[3]-------|
|--1--1--1---------------1-----------1--------------|
|
| Gtr III
|  PM    PM
|---------------------------------------------------|
|---------------------------------------------------|
|-------------17--------18-------15-----------17----|
|----------15----15-14-----14h17----17-15-18-----17-|
|----15---------------------------------------------|
|-12----13------------------------------------------|


 6/4
   PM---|
|------------------------------------------------------|
|------------------------------------------------------|
|------------------------------------------------------|
|--6--6--6----10p===6h====8----------------------------|
|--3--3--3---------------------------------------------|
|------------------------------0----(0)----------------|
|
|  PM---|
|------------------------------------------------------|
|------------------------------------------------------|
|------------------------------------------------------|
|------------------------------------------------------|
|------------------------------------------------------|
|--1--1--1-----4p===1h====3----0----(0)----------------|
|
|--------------------------------18-21--------------18-|
|------------------------17h20----------23-------20----|
|---------------------18-------------------23-21-------|
|-20h23p20-------20------------------------------------|
|----------22-22---------------------------------------|
|------------------------------------------------------|


 8/4
   PM---------|           PM------------|      ~~~
|-------------------------------------------------------|
|-------------------------------------------------------|
|-------------------------------------------------------|
|--6--6--6-----6----------6--------6-----6--------------|
|--3--3--3-----3----[7]---3--------3-----3----[7]-------|
|-------------------------------------------------------|
|
|  PM---------|           PM------------|      ~~~
|-------------------------------------------------------|
|-------------------------------------------------------|
|-------------------------------------------------------|
|-------------------------------------------------------|
|-------------------[3]-----------------------[3]-------|
|--1--1--1-----1----------1--------1-----1--------------|
|
|----20------------------------------------20-----20h21-|
|-21----21-20h21p20---------------21p20h21----21--------|
|-------------------22p21h==22p21-----------------------|
|-------------------------------------------------------|
|-------------------------------------------------------|
|-------------------------------------------------------|


 6/4
   PM---|
|-------------------------------------|
|-------------------------------------|
|-------------------------------------|
|--6--6--6----10p=6h==8---------------|
|--3--3--3----------------------------|
|---------------------------0--(0)----|
|
|  PM---|
|-------------------------------------|
|-------------------------------------|
|-------------------------------------|
|-------------------------------------|
|-------------------------------------|
|--1--1--1-----4p=1h==3-----0--(0)----|
|
|                               ~~~~
|-24-21-20----20----------------------|
|----------21----20-(20)b21r==(20)----|
|-------------------------------------|
|-------------------------------------|
|-------------------------------------|
|-------------------------------------|


 8/4
  Gtr I
   PM----------------|          PM---------------|      ~~~
|-------------------------------------------------------------------|
|-------------------------------------------------------------------|
|-------------------------------------------------------------------|
|--6---6-------6------6---------6--------6--------6-----------------|
|--3---3-------3------3----[7]--3--------3--------3----[7]----------|
|-------------------------------------------------------------------|
|
| Gtr II
|  PM----------------|          PM---------------|      ~~~
|-------------------------------------------------------------------|
|-------------------------------------------------------------------|
|-------------------------------------------------------------------|
|-------------------------------------------------------------------|
|--------------------------[3]-------------------------[3]----------|
|--1---1-------1------1---------1--------1--------1-----------------|
|
| Gtr IV
|-------------------------------------------------------------------|
|-------------------------------------------------------------------|
|-17-(17)b18r(17)----17-----------------17----------15-18--------15-|
|-----------------18----18-17--15-17-18----18-17-18--------17-18----|
|-------------------------------------------------------------------|
|-------------------------------------------------------------------|


 6/4
   PM--------|
|--------------------------------------------------------|
|--------------------------------------------------------|
|--------------------------------------------------------|
|--6----6------6-----10p=6h==8---------------------------|
|--3----3------3-----------------------------------------|
|------------------------------------0-(0)---------------|
|
|  PM--------|
|--------------------------------------------------------|
|--------------------------------------------------------|
|--------------------------------------------------------|
|--------------------------------------------------------|
|--------------------------------------------------------|
|--1----1------1------4p=1h==3-------0-(0)---------------|
|
|--------------------------------------------------------|
|-----------------------17-(17)b18.5r======17-(17)b19r===|
|-18-15------[15]-18-17----------------18----------------|
|---------18---------------------------------------------|
|--------------------------------------------------------|
|--------------------------------------------------------|





 7/4
   PM----------------------------------------------------|
|-----------------------------------------|-----------------------------------|
|-----------------------------------------|-----------------------------------|
|-----------------------------------------|-----------------------------------|
|--6---6-------6---6-6--6-6-6-6-6-6-6-6-6-|--6--6--6-6-6-6--10p==6h8----------|
|--3---3-------3---3-3--3-3-3-3-3-3-3-3-3-|--3--3--3-3-3-3--------------------|
|-----------------------------------------|--------------------------0-(0)----|
|
|  PM-------------------|   PM---------------------------|
|-----------------------------------------|-----------------------------------|
|-----------------------------------------|-----------------------------------|
|-----------------------------------------|-----------------------------------|
|-----------------------------------------|-----------------------------------|
|-------------------------3---------------|--3--3-----------------------------|
|--1---1-------1---1-1--1---1-1-1-1-1-1-1-|--------1-1-1-1---4p==1h3-0-(0)----|
|
|                    \4                            /         \4.5
|--------------------0--------------------|-(0)-------------------------------|
|-18-(18)b22-(18)\---0--------------------|-(0)---21-------(21)---------------|
|-----------------------------------------|-----------------------------------|
|-----------------------------------------|-----------------------------------|
|-----------------------------------------|-----------------------------------|
|-----------------------------------------|-----------------------------------|


 7/4
  Gtr I
   PM-------------------------------------------------------------------
|----------------------------------------------------------------------|
|----------------------------------------------------------------------|
|----------------------------------------------------------------------|
|--6----6-----6----6-----6--6--6--6----6-----6----6-----6---6-------6--|
|--3----3-----3----3-----3--3--3--3----3-----3----3-----3---3-------3--|
|----------------------------------------------------------------------|
|
| Gtr II
|  PM----------------------|      PM------------------------------------
|----------------------------------------------------------------------|
|----------------------------------------------------------------------|
|----------------------------------------------------------------------|
|----------------------------------------------------------------------|
|------------------------------3---------------------------------------|
|--1----1-----1----1-----1--1-----1----1-----1----1-----1---1-------1--|
|
| Gtr III
|-20--------------------20--------------------------21-20-(20)b21r(20)-|
|----21p==20-21-20---18----21-20---------------21----------------------|
|-------------------------------------------22-------------------------|
|----------------------------------------22----------------------------|
|--------------------------------20-23---------------------------------|
|----------------------------------------------------------------------|


 -----------------------------|
|-------------------------------------------------------|
|-------------------------------------------------------|
|-------------------------------------------------------|
|--6----6-----6----6-----6----6----10p=6h=8-------------|
|--3----3-----3----3-----3----3-------------------------|
|--------------------------------------------0-(0)------|
|
|-----------------------------|
|-------------------------------------------------------|
|-------------------------------------------------------|
|-------------------------------------------------------|
|-------------------------------------------------------|
|--3----3-----------------------------------------------|
|-------------1----1-----1----1-----4p=1h=3--0-(0)------|
|
|-21-20---18--------------------------------------------|
|------------21-20---18-20------------------------------|
|--------------------------21---------------------------|
|-------------------------------23-22p18h20-20s====22---|
|-------------------------------------------------------|
|-------------------------------------------------------|


 Riff B (2:17)

 Riff C (2:24)

 Riff D (2:33)

 Riff A (3:03) x 2

 Outro (3:35)
  Q=240
 4/4
  Gtrs I, II
|----------|----------|----------*|
|----------|----------|----------*|
|----------|----------|----------*|
|----------|-5--------|-6--------*|
|-6--------|-3--------|-3--------*|
|-4--------|----------|----------*|











08 - Symbiotic in Theory - =======================================================









            
            
Suggest correction
Creating personal tab
Creating personal tab
You can edit any tab online and save it as your Personal.

You can edit, replace or remove any tab part or add personal notes – all changes will be seen only by you.

Personal tabs can be accessed anytime from any device, even offline.
Learn more »
comments
print report bad tab
10 comments total. Showing first comments.
0 reply
Schmietty 10 Feb 21, 2007 07:43 PM

I love you.

0 reply
Abominist13 114 Apr 15, 2007 01:16 PM

Where is Symbiotic?

0 reply
Abominist13 114 Apr 15, 2007 01:17 PM

>>>>>>>>>>>>>>>>>>>>>>>>>>>>>>>>>>>>>>>>>>>>>>>>>>>>>>>>>>>>>>>>>>>>>

guest
Wanna post a correction for this tab? Suggest correction