Oops, an error
Loading. Please wait.

Only Ash Remains tab

version 2
version 2

Whole song

Interactive

776 views 1 this week
no commentswrite comment
1 2 3 4 5
3 more votes to show rating
add to favorites
×
Save as Personal and add changes to this tab that will be seen only by you. Learn more ›
×
You can save this tab as Personal to edit and correct it or add notes. All changes will be seen only by you. Learn more »
launch autoscroll
font size
0
reset
how to read this tab
guitar tuner
backing track
0:00
0:00
edit
Autoscroll
slow
fast
+/-
esc
set tempo
stop
Author
ONLY ASH REMAINS
                           As recorded by Necrophagist
                          (From the 2004 Album EPITAPH)

Words and Music by Muhammed Suicmez


Gtr I (D G C F A D) - 'Guitar 1'
Gtr II (D G C F A D) - 'Guitar 2'
Gtr III (D G C F A D) - 'Guitar 3'

  Q=240
 3/4                         5/4
  Gtr I
                    ~~
  W        W        H.        +H   H.
|--------|--------|---------|------------|
|--------|--------|---------|------------|
|--------|--------|---------|------------|
|--------|--------|---------|------------|
|--------|--------|-3-------|-(3)--2-----|
|--------|--------|-1-------|-(1)--0-----|
|
| Gtr II
|                                  ~~
| W        W        H.        +H   H.
|--------|--------|---------|------------|
|--------|--------|---------|------------|
|--------|--------|---------|------------|
|--------|--------|---------|------------|
|--------|--------|-3-------|-(3)--7-----|
|--------|--------|-1-------|-(1)--0-----|


 3/4                                 4/4        3/4
  H.        +H    Q       +H   Q      +W         Q  H
|---------|------------|------------|----------|-------|
|---------|------------|------------|----------|-------|
|---------|------------|------------|----------|-------|
|---------|------------|------------|----------|-3-----|
|-0-------|-(0)---3----|--(3)--2----|-(2)------|-------|
|-0-------|-(0)---1----|--(1)--0----|-(0)------|-1-----|
|
| ~~~~~~~~~~~~~~~~~~~~~~~~~~~~~~~~~~~~~~~~
| H.        +H    Q       +H   Q      +W         Q  H
|---------|------------|------------|----------|-------|
|---------|------------|------------|----------|-------|
|---------|------------|------------|----------|-------|
|-7-------|-(7)--10----|-(10)-------|----------|-------|
|-0-------|-(0)---8----|--(8)--7----|-(7)------|-3-----|
|---------|------------|-------0----|-(0)------|-1-----|


   |--3--|  |--3--|  |--3--|    |--3--|  |--3--|  |--3--|
   E  E  E  E  E  E  E  E  E    E  E  E  E  E  E  E  E  E
|-12h13h16p13p12----12-------|----------------------------|
|----------------15----13-15-|-12h13h15p13p12----12-------|
|----------------------------|----------------14----13-14-|
|----------------------------|----------------------------|
|----------------------------|----------------------------|
|----------------------------|----------------------------|
|
|  |--3--|  |--3--|  |--3--|    |--3--|  |--3--|  |--3--|
|  E  E  E  E  E  E  E  E  E    E  E  E  E  E  E  E  E  E
|-16h17h19p17p16----16-------|----------------------------|
|----------------18----17-18-|-15h17h18p17p15----15-------|
|----------------------------|----------------17----16-17-|
|----------------------------|----------------------------|
|----------------------------|----------------------------|
|----------------------------|----------------------------|


                              5/4
   |--3--|  |--3--|  |--3--|    |--3--|  |--3--|  |--3--|  |--3--|  |--3--|
   E  E  E  E  E  E  E  E  E    E  E  E  E  E  E  E  E  E  E  E  E  E  E  E
|-------------------12h13h16-|-------------------13h16h17p16h17p16p13h16p13--|
|----------12-13-15----------|----------13-15-17-----------------------------|
|-10-13-14-------------------|-13h14h16--------------------------------------|
|----------------------------|-----------------------------------------------|
|----------------------------|-----------------------------------------------|
|----------------------------|-----------------------------------------------|
|
|  |--3--|  |--3--|  |--3--|    |--3--|  |--3--|  |--3--|  |--3--|  |--3--|
|  E  E  E  E  E  E  E  E  E    E  E  E  E  E  E  E  E  E  E  E  E  E  E  E
|-------------------16h17h19-|-------------------17h19h20p19h20p19p17h19p17--|
|----------15-17-18----------|----------17-18-21-----------------------------|
|-14-16-17-------------------|-16h17h19--------------------------------------|
|----------------------------|-----------------------------------------------|
|----------------------------|-----------------------------------------------|
|----------------------------|-----------------------------------------------|


 3/4
   |--3--|  |--3--|  |--3--|    |--3--|  |--3--|  |--3--|
   E  E  E  E  E  E  E  E  E    E  E  E  E  E  E  E  E  E
|-12h13h16p13p12----12-------|----------------------------|
|----------------15----13-15-|-12h13h15p13p12----12-------|
|----------------------------|----------------14----13-14-|
|----------------------------|----------------------------|
|----------------------------|----------------------------|
|----------------------------|----------------------------|
|
|  |--3--|  |--3--|  |--3--|    |--3--|  |--3--|  |--3--|
|  E  E  E  E  E  E  E  E  E    E  E  E  E  E  E  E  E  E
|-16h17h19p17p16----16-------|----------------------------|
|----------------18----17-18-|-15h17h18p17p15----15-------|
|----------------------------|----------------17----16-17-|
|----------------------------|----------------------------|
|----------------------------|----------------------------|
|----------------------------|----------------------------|


   |--3--|  |--3--|  |--3--|    |--3--|  |--3--|  |--3--|
   E  E  E  E  E  E  E  E  E    E  E  E  E  E  E  E  E  E
|-------------------12h13h16-|-------------------13h16h17--|
|----------12-13-15----------|----------13-15-17-----------|
|-10-13-14-------------------|-13h14h16--------------------|
|----------------------------|-----------------------------|
|----------------------------|-----------------------------|
|----------------------------|-----------------------------|
|
|  |--3--|  |--3--|  |--3--|    |--3--|  |--3--|  |--3--|
|  E  E  E  E  E  E  E  E  E    E  E  E  E  E  E  E  E  E
|-------------------16h17h19-|-------------------17h19h20--|
|----------15-17-18----------|----------17-18-21-----------|
|-14-16-17-------------------|-16h17h19--------------------|
|----------------------------|-----------------------------|
|----------------------------|-----------------------------|
|----------------------------|-----------------------------|


   |--3--|  |--3--|  |--3--|    |--3--|  |--3--|  |--3--|
   E  E  E  E  E  E  E  E  E    E  E  E  E  E  E  E  E  E
|-12h13h16p13p12----12-------|----------------------------|
|----------------15----13-15-|-12h13h15p13p12----12-------|
|----------------------------|----------------14----13-14-|
|----------------------------|----------------------------|
|----------------------------|----------------------------|
|----------------------------|----------------------------|
|
|  |--3--|  |--3--|  |--3--|    |--3--|  |--3--|  |--3--|
|  E  E  E  E  E  E  E  E  E    E  E  E  E  E  E  E  E  E
|-16h17h19p17p16----16-------|----------------------------|
|----------------18----17-18-|-15h17h18p17p15----15-------|
|----------------------------|----------------17----16-17-|
|----------------------------|----------------------------|
|----------------------------|----------------------------|
|----------------------------|----------------------------|


                              5/4
   |--3--|  |--3--|  |--3--|    |--3--|  |--3--|  |--3--|  |--3--|  |--3--|
   E  E  E  E  E  E  E  E  E    E  E  E  E  E  E  E  E  E  E  E  E  E  E  E
|-------------------12h13h16-|-------------------13h16h17-16h17p16p13h16p13--|
|----------12-13-15----------|----------13-15-17-----------------------------|
|-10-13-14-------------------|-13h14h16--------------------------------------|
|----------------------------|-----------------------------------------------|
|----------------------------|-----------------------------------------------|
|----------------------------|-----------------------------------------------|
|
|  |--3--|  |--3--|  |--3--|    |--3--|  |--3--|  |--3--|  |--3--|  |--3--|
|  E  E  E  E  E  E  E  E  E    E  E  E  E  E  E  E  E  E  E  E  E  E  E  E
|-------------------16h17h19-|-------------------17h19h20-19h20p19p17h19p17--|
|----------15-17-18----------|----------17-18-21-----------------------------|
|-14-16-17-------------------|-16h17h19--------------------------------------|
|----------------------------|-----------------------------------------------|
|----------------------------|-----------------------------------------------|
|----------------------------|-----------------------------------------------|


 3/4
   |--3--|  |--3--|  |--3--|
   E  E  E  E  E  E  E  E  E
|-12h13h16p13p12----12-------|
|----------------15----13-15-|
|----------------------------|
|----------------------------|
|----------------------------|
|----------------------------|
|
|  |--3--|  |--3--|  |--3--|
|  E  E  E  E  E  E  E  E  E
|-16h17h19p17p16----16-------|
|----------------18----17-18-|
|----------------------------|
|----------------------------|
|----------------------------|
|----------------------------|


                              4/4
   |--3--|  |--3--|  |--3--|    |--3--|  |--3--|
   E  E  E  E  E  E  E  E  E    E  E  E  E  E  E  E Q.
|----------------------------|---------------------------|
|-12h13h15p13p12----12-------|----------12h13p12-18------|
|----------------14----13-14-|-10h13h14------------------|
|----------------------------|---------------------------|
|----------------------------|---------------------------|
|----------------------------|---------------------------|
|
|  |--3--|  |--3--|  |--3--|    |--3--|  |--3--|
|  E  E  E  E  E  E  E  E  E    E  E  E  E  E  E  E Q.
|----------------------------|---------------------------|
|-15h17h18p17p15----15-------|----------15h17p15-21------|
|----------------17----16-17-|-14h16h17------------------|
|----------------------------|---------------------------|
|----------------------------|---------------------------|
|----------------------------|---------------------------|


 3/4                 4/4                     5/4
  PM----|         PM----|     PM    PM    PM     PM--|     PM--|     PM
  S S S S E E  E  E   E E  E  E  E  E  E  E    E E E E  E  E E E  E  E
|-------------------|-----------------------|--------------------------|
|-------------------|-----------------------|--------------------------|
|-------------------|-----------------------|--------------------------|
|--------------6----|------6-----6-----9----|--2--------2---------3----|
|-------------------|-----------------------|--------------------------|
|-1-1-1-1-0h1-----4-|-0-4-(4)-4-(4)-4-(4)-4-|----1-0-1-(1)-1-0-1-(1)-1-|
|
|     PM----------------|     PM    PM    PM     PM--|     PM--|     PM
| E   E   E E  E  E   E E  E  E  E  E  E  E    E E E E  E  E E E  E  E
|-------------------|-----------------------|--------------------------|
|-------------------|-----------------------|--------------------------|
|-2-----------------|------7-----7----10----|-13-------13--------14----|
|--------------3----|---------0-----0-----0-|--------------------------|
|-------------------|---8-(8)---------------|----8---8-(8)-8---8-(8)-8-|
|-----1---0-1-(1)-1-|-0---------------------|------0---------0---------|


 3/4                4/4                     5/4
   PM----|       PM----|     PM    PM    PM     PM--|     PM--|
   S S S S E E E E   E E  E  E  E  E  E  E    E E E E  E  E E  E  E  E
|------------------|-----------------------|---------------------------|
|------------------|-----------------------|---------------------------|
|------------------|-----------------------|---------------------------|
|--------------6---|------6-----6-----9----|--2--------2---------------|
|------------------|-----------------------|---------------------------|
|--1-1-1-1-0h1---4-|-0-4-(4)-4-(4)-4-(4)-4-|----1-0-1-----1-0--1-[0]-1-|
|
|      PM--------------|     PM    PM    PM     PM--|     PM|        PM
|  E   E   E E E E   E E  E  E  E  E  E  E    E E E E  E  E E  E  E  E
|------------------|-----------------------|---------------------------|
|------------------|-----------------------|---------------------------|
|-14---------------|------7-----7----10----|-13-------13------10s=9----|
|------------------|---------0-----0-----0-|---------------------------|
|------8-----------|---8-------------------|----8---8-(8)-8----------8-|
|----------0-1-1-1-|-0---------------------|------0---------0----------|


 3/4
  PM------|           PM--|         PM|       PM|       PM--|
  E E  E  E E E    E  E E E  E  E   E E  E  E E E    E  E E E E E
|---------------|-----------------|---------------|---------------|
|---------------|-----------------|---------------|---------------|
|---------------|-----------------|---------------|---------------|
|------5--------|--2---------3----|------3--------|--2--------3---|
|---------------|-----------------|---------------|---------------|
|-0-1-(1)-1-0-1-|-(1)-1-0-1-(1)-1-|-0-1-(1)-1-0-1-|-(1)-1-0-1-----|
|
| PM|     PM--|       PM--|     PM----|     PM--|       PM--|
| E E  E  E E E    E  E E E  E  E   E E  E  E E E    E  E E E E E
|---------------|-----------------|---------------|---------------|
|---------------|-----------------|---------------|---------------|
|---------------|-----------------|---------------|---------------|
|------2--------|--2---------3----|------5--------|--2--------3---|
|---------------|-----------------|---------------|---------------|
|-0-1-(1)-1-0-1-|-(1)-1-0-1-(1)-1-|-0-1-(1)-1-0-1-|-(1)-1-0-1-----|


                                   5/4
  PM|     PM--|       PM--|     PM----|       PM----|     PM
  E E  E  E E E    E  E E E  E  E   E E  E  E E  E  E  E  E  E
|---------------|-----------------|-----------------------------|
|---------------|-----------------|-----------------------------|
|---------------|-----------------|-----------------------------|
|------3--------|--5---------3----|------5-------3-----3-----2--|
|---------------|-----------------|-----------------------------|
|-0-1-(1)-1-0-1-|-(1)-1-0-1-(1)-1-|-0-1-(1)-1-0-(0)-0-(0)-0-(0)-|
|
| PM|     PM--|       PM--|     PM----|       PM----|     PM
| E E  E  E E E    E  E E E  E  E   E E  E  E E  E  E  E  E  E
|---------------|-----------------|-----------------------------|
|---------------|-----------------|-----------------------------|
|---------------|-----------------|-----------------------------|
|------5--------|--3---------6----|------3-------6-----6-----5--|
|---------------|-----------------|-----------------------------|
|-0-1-(1)-1-0-1-|-(1)-1-0-1-(1)-1-|-0-1-(1)-1-0-(0)-0-(0)-0-(0)-|


 4/4
  PM----|  ~~~~~~~~~~~~~~~~~~~~~~~~~~~~~~~~~~ PM  ~~~~~~~~~~~
  Q  Q  Q  Q    +W                 Q    +Q    Q   Q     +W
|-------------|-----------------|---------------------|-----------------|
|-------------|-----------------|---------------------|-----------------|
|----------8--|-(8)-------------|-[8]--([8])------8---|-(8)-------------|
|-2--3--2-----|-----------------|---------------------|-----------------|
|-2--3--2--6--|-(6)-------------|-------------7---6---|-(6)-------------|
|-0--1--0-----|-----------------|-------------0-------|-----------------|
|
| PM----|  ~                       PM---------|   ~~~~~~~~~~~
|                |-3--|
| Q  Q  Q  Q     E  E E H.         Q     Q    Q  +Q     +Q   Q  Q  Q
|-------------|-----------------|---------------------|-----------------|
|-------------|---------4-------|---------------------|------------0----|
|----------8--|-------5---------|--3-------------(8)--|-(8)-----5-------|
|-2--3--2-----|-----5-----------|--1-----3----2-------|-----------------|
|-2--3--2--6--|--3--------------|--1-----3----2--(6)--|-(6)s=3----------|
|-0--1--0-----|-----------------|--------1----0-------|-----------------|


 4/4
  PM----|  ~~~~~~~~~~~~~~~~~~~~~~~~~~~~~~~~~~ PM ~~~~~~~~~~   PM-|
  Q  Q  Q  Q    +W                 Q    +Q    Q  Q    +H      Q  Q
|-------------|-----------------|-------------------|---------------|
|-------------|-----------------|-------------------|---------------|
|----------8--|-(8)-------------|-[8]--([8])-----8--|-(8)-----------|
|-2--3--2-----|-----------------|-------------------|---------------|
|-2--3--2--6--|-(6)-------------|-------------7--6--|-(6)-----6--3--|
|-0--1--0-----|-----------------|-------------0-----|---------4--1--|
|
| PM----|  ~                       PM---------|  ~~~~~~~~~~
|                |-3--|
| Q  Q  Q  Q     E  E E H.         Q     Q    Q  Q    +Q   Q  Q  Q
|-------------|-----------------|-------------------|---------------|
|-------------|---------4-------|-------------------|---------0-----|
|----------8--|-------5---------|--3-------------8--|-(8)--------5--|
|-2--3--2-----|-----5-----------|--1-----3----2-----|---------------|
|-2--3--2--6--|--3--------------|--1-----3----2--6--|-(6)s=2--------|
|-0--1--0-----|-----------------|--------1----0-----|---------------|


 4/4
  PM----|  ~~~~~~~~~~~~~~~~~~~~~~
  Q  Q  Q  Q    +W
|-------------|-----------------|
|-------------|-----------------|
|----------8--|-(8)-------------|
|-2--3--2-----|-----------------|
|-2--3--2--6--|-(6)-------------|
|-0--1--0-----|-----------------|
|
| PM----|  ~
|                |-3--|
| Q  Q  Q  Q     E  E E H.
|-------------|-----------------|
|-------------|---------4-------|
|----------8--|-------5---------|
|-2--3--2-----|-----5-----------|
|-2--3--2--6--|--3--------------|
|-0--1--0-----|-----------------|


 ~~~~~~~~~~~~ PM  ~~~~~~~~~~~           PM----|  ~
   Q    +Q    Q   Q     +W              Q  Q  Q  Q
|---------------------|---------------|--------------|
|---------------------|---------------|--------------|
|-[8]--([8])------8---|-(8)-----------|----------8---|
|---------------------|---------------|-2--3--2------|
|-------------7---6---|-(6)-----------|-2--3--2--6---|
|-------------0-------|---------------|-0--1--0------|
|
|  PM---------|   ~~~~~~~~~~~           PM----|  ~
|  Q     Q    Q  +Q     +Q   Q  Q  Q    Q  Q  Q  Q
|---------------------|---------------|--------------|
|---------------------|------------0--|--------------|
|--3-------------(8)--|-(8)-----5-----|----------8---|
|--1-----3----2-------|---------------|-2--3--2------|
|--1-----3----2--(6)--|-(6)s=3--------|-2--3--2--6---|
|--------1----0-------|---------------|-0--1--0------|


   ~~~~~~~~~~~~~~~~~~~~~~~~~~~~ PM ~~~~
  +W                 Q    +Q    Q  Q
|-----------------|-------------------|
|-----------------|-------------------|
|-(8)-------------|-[8]--([8])-----8--|
|-----------------|-------------------|
|-(6)-------------|-------------7--6--|
|-----------------|-------------0-----|
|
|                    PM---------|  ~~~~
|  |-3--|
|  E  E E H.         Q     Q    Q  Q
|-----------------|-------------------|
|---------4-------|-------------------|
|-------5---------|--3-------------8--|
|-----5-----------|--1-----3----2-----|
|--3--------------|--1-----3----2--6--|
|-----------------|--------1----0-----|


                     3/4
 ~~~~~~    PM--|       ~~~ PM    PM      PM--|
                                         |-3--|
  +H       Q    Q      Q   E  E  E  E    Q Q  Q Q
|-------------------|------------------|-----------|
|-------------------|------------------|-----------|
|-(8)---------------|------------------|-----------|
|-------------------|--7------9-----7--|-----11----|
|-(6)------6----3---|--0---0-(0)-0-(0)-|---8-------|
|----------4----1---|------------------|-6---------|
|
|~~~~~~                    PM    PM      PM--|
|                                        |-3--|
| +Q   Q   Q    Q      Q   E  E  E  E    Q Q  Q Q
|-------------------|------------------|-----------|
|----------0--------|------------------|-----------|
|-(8)-----------5---|-(5)-----7-----5--|------9----|
|-------------------|------------------|---6-------|
|-(6)s=2--(2)--(2)s=|==3---3-(3)-3-(3)-|-4---------|
|-------------------|------------------|-----------|


 4/4
  ~  PM    PM    PM          PM|     PM    PM
  Q  E  E  E  E  E  E     E  E E  E  E  E  E  E
|----------------------|-------------------------|
|----------------------|-------------------------|
|-3-----4-----3-----4s=|==3-------3-----4-----3s=|
|----------------------|-------------------------|
|-1--1-(1)-1-(1)-1-(1)-|-(1)-1-1-(1)-1-(1)-1-(1)s|
|----------------------|-------------------------|
|
| ~  PM    PM    PM          PM|     PM    PM
| Q  E  E  E  E  E  E     E  E E  E  E  E  E  E
|----------------------|-------------------------|
|----------------------|-------------------------|
|-3-----4-----3-----4s=|==3-------3-----4-----3s=|
|----------------------|-------------------------|
|-1--1-(1)-1-(1)-1-(1)-|-(1)-1-1-(1)-1-(1)-1-(1)s|
|----------------------|-------------------------|


    PM|     PM    PM          PM|     PM    PM
  E E E  E  E  E  E  E     E  E E  E  E  E  E  E
|-----------------------|--------------------------|
|-----------------------|--------------------------|
|-6------7-----6-----4s=|==6-------6-----7-----9---|
|-----------------------|--------------------------|
|-4-4-4-(4)-4-(4)-4-(4)-|-(4)-4-4-(4)-4-(4)-4-(4)--|
|-----------------------|--------------------------|
|
|   PM|     PM    PM          PM|     PM    PM
| E E E  E  E  E  E  E     E  E E  E  E  E  E  E
|-----------------------|--------------------------|
|-----------------------|--------------------------|
|-6------7-----6-----4s=|==6-------6-----7-----9---|
|-----------------------|--------------------------|
|-4-4-4-(4)-4-(4)-4-(4)-|-(4)-4-4-(4)-4-(4)-4-(4)--|
|-----------------------|--------------------------|


  ~  PM    PM    PM          PM|     PM    PM
  Q  E  E  E  E  E  E     E  E E  E  E  E  E  E
|----------------------|-------------------------|
|----------------------|-------------------------|
|-3-----4-----3-----4s=|==3-------3-----4-----3s=|
|----------------------|-------------------------|
|-1--1-(1)-1-(1)-1-(1)-|-(1)-1-1-(1)-1-(1)-1-(1)-|
|----------------------|-------------------------|
|
| ~  PM    PM    PM          PM|     PM    PM
| Q  E  E  E  E  E  E     E  E E  E  E  E  E  E
|----------------------|-------------------------|
|----------------------|-------------------------|
|-------7-----6--------|----------6-----7--------|
|-5-----------------6s=|==5-------------------5s=|
|----------------------|-------------------------|
|-3--3-(3)-3-(3)-3-(3)-|-(3)-3-3-(3)-3-(3)-3-(3)s|


    PM|     PM    PM          PM|     PM    PM
  E E E  E  E  E  E  E     E  E E  E  E  E  E  E
|-----------------------|-------------------------|
|-----------------------|-------------------------|
|-6------7-----6-----4s=|==6-------7----10----10--|
|-----------------------|-------------------------|
|---4-4-(4)-4-(4)-4-(4)-|-(4)-4-4-(4)-4-(4)-4-(4)-|
|-----------------------|-------------------------|
|
|   PM|     PM    PM          PM|     PM    PM
| E E E  E  E  E  E  E     E  E E  E  E  E  E  E
|-----------------------|-------------------------|
|-----------------------|-------------------------|
|-----------------------|----------------7-----7s=|
|-8------9-----8-----6s=|==8-------9--------------|
|-----------------------|-------------------------|
|-6-6-6-(6)-6-(6)-6-(6)-|-(6)-6-6-(6)-6-(6)-6-(6)-|


    PM|           ~~~~~~~~
  E E E E E  E  E E   +E  Q  E E E E  E
|-------------------|--------------------|
|-------------------|--------------------|
|-9----------4----3-|-(3)-------------3s=|
|-------------------|--------------------|
|-------4-----------|-----2--4p2---------|
|---0-0---3-(3)-3---|-----0------0h2-(2)-|
|
|   PM|   PM    PM~~~~~~~~~~
| E E E E E  E  E E   +E  Q  E E E E  E
|-------------------|--------------------|
|-------------------|--------------------|
|-6-----------------|--------6p4------6s=|
|-------------------|--------------------|
|-------7---10----4-|-(4)-7--------------|
|---0-0---6-----0---|-----0------0h6-(6)-|


    PM|     PM    PM         PM|     PM    PM|
  E E E  E  E  E  E  E     E E E  E  E  E  E E
|-----------------------|----------------------|
|-----------------------|----------------------|
|-6---------------------|---------6-----7------|
|-----------------------|----------------------|
|--------4-----2-----1s=|==4-------------------|
|---0-3-----0-----0-----|----0-3-(3)-3-(3)-3-3-|
|
|   PM|     PM    PM         PM|     PM    PM|
| E E E  E  E  E  E  E     E E E  E  E  E  E E
|-----------------------|----------------------|
|-----------------------|----------------------|
|-9---------------------|----------------------|
|-------11-----9-----8s=|=11------8-----8------|
|-----------------------|----------------------|
|---0-6-(6)-6-(6)-6-(6)-|----0-6-(6)-6-(6)-6-6-|


     PM|            ~~~~~~~~~
   E E E E E  E  E  E    +E   Q   E E E E  E
|----------------------|----------------------|
|----------------------|----------------------|
|-------------4-----3--|-(3)---------------3s=|
|----------------------|----------------------|
|--7-----4-------------|------2---4p2---------|
|----0-0---3-(3)-3-(3)-|------0-------0h2-(2)-|
|
|    PM|   PM    PM ~~~~~~~~~~~~
|  E E E E E  E  E  E    +E   Q   E E E E  E
|----------------------|----------------------|
|----------------------|----------------------|
|----------------------|-------------------6s=|
|----------------------|---------11p9---------|
|-10-----7---10-----7--|-(7)-10---------------|
|----0-0---6-----0-----|------0-------0h6-(6)-|


                         5/4
    PM|     PM    PM         PM|     PM    PM
  E E E  E  E  E  E  E     E E E  E  E  E  E  E  Q
|-----------------------|--------------------------|
|-----------------------|--------------------------|
|-6---------------------|---------6-----7-----6----|
|-----------------------|--------------------------|
|--------4-----2-----1s=|==4-----------------------|
|---0-3-----0-----0-----|----0-3-(3)-3-(3)-3-(3)---|
|
|   PM|     PM    PM         PM|     PM    PM
| E E E  E  E  E  E  E     E E E  E  E  E  E  E  Q
|-----------------------|--------------------------|
|-----------------------|--------------------------|
|-9---------------------|--------------------------|
|--------8-----9-----8s=|=11------5-----5-----5----|
|-----------------------|--------------------------|
|---0-6-(6)-6-(6)-6-(6)-|----0-3-(3)-3-(3)-3-(3)---|


 4/4
  PM----|  ~~~~~~~~~~~~~~~~~~~~~~~~~~~~~~~~~~ PM  ~~~~~~~~~~~
  Q  Q  Q  Q    +W                 Q    +Q    Q   Q     +W
|-------------|-----------------|---------------------|-----------------|
|-------------|-----------------|---------------------|-----------------|
|----------8--|-(8)-------------|-[8]--([8])------8---|-(8)-------------|
|-2--3--2-----|-----------------|---------------------|-----------------|
|-2--3--2--6--|-(6)-------------|-------------7---6---|-(6)-------------|
|-0--1--0-----|-----------------|-------------0-------|-----------------|
|
| PM----|  ~                       PM---------|   ~~~~~~~~~~~
|                |-3--|
| Q  Q  Q  Q     E  E E H.         Q     Q    Q  +Q     +Q   Q  Q  Q
|-------------|-----------------|---------------------|-----------------|
|-------------|---------4-------|---------------------|------------0----|
|----------8--|-------5---------|--3-------------(8)--|-(8)-----5-------|
|-2--3--2-----|-----5-----------|--1-----3----2-------|-----------------|
|-2--3--2--6--|--3--------------|--1-----3----2--(6)--|-(6)s=3----------|
|-0--1--0-----|-----------------|--------1----0-------|-----------------|


 4/4
  PM----|  ~~~~~~~~~~~~~~~~~~~~~~~~~~~~~~~~~~ PM ~~~~~~~~~~   PM-|
  Q  Q  Q  Q    +W                 Q    +Q    Q  Q    +H      Q  Q
|-------------|-----------------|-------------------|---------------|
|-------------|-----------------|-------------------|---------------|
|----------8--|-(8)-------------|-[8]--([8])-----8--|-(8)-----------|
|-2--3--2-----|-----------------|-------------------|---------------|
|-2--3--2--6--|-(6)-------------|-------------7--6--|-(6)-----6--3--|
|-0--1--0-----|-----------------|-------------0-----|---------4--1--|
|
| PM----|  ~                       PM---------|  ~~~~~~~~~~
|                |-3--|
| Q  Q  Q  Q     E  E E H.         Q     Q    Q  Q    +Q   Q  Q  Q
|-------------|-----------------|-------------------|---------------|
|-------------|---------4-------|-------------------|---------0-----|
|----------8--|-------5---------|--3-------------8--|-(8)--------5--|
|-2--3--2-----|-----5-----------|--1-----3----2-----|---------------|
|-2--3--2--6--|--3--------------|--1-----3----2--6--|-(6)s=2--------|
|-0--1--0-----|-----------------|--------1----0-----|---------------|


 4/4
  PM----|  ~~~~~~~~~~~~~~~~~~~~~~
  Q  Q  Q  Q    +W
|-------------|-----------------|
|-------------|-----------------|
|----------8--|-(8)-------------|
|-2--3--2-----|-----------------|
|-2--3--2--6--|-(6)-------------|
|-0--1--0-----|-----------------|
|
| PM----|  ~
|                |-3--|
| Q  Q  Q  Q     E  E E H.
|-------------|-----------------|
|-------------|---------4-------|
|----------8--|-------5---------|
|-2--3--2-----|-----5-----------|
|-2--3--2--6--|--3--------------|
|-0--1--0-----|-----------------|


 ~~~~~~~~~~~~ PM  ~~~~~~~~~~~           PM----|  ~
   Q    +Q    Q   Q     +W              Q  Q  Q  Q
|---------------------|---------------|--------------|
|---------------------|---------------|--------------|
|-[8]--([8])------8---|-(8)-----------|----------8---|
|---------------------|---------------|-2--3--2------|
|-------------7---6---|-(6)-----------|-2--3--2--6---|
|-------------0-------|---------------|-0--1--0------|
|
|  PM---------|   ~~~~~~~~~~~           PM----|  ~
|  Q     Q    Q  +Q     +Q   Q  Q  Q    Q  Q  Q  Q
|---------------------|---------------|--------------|
|---------------------|------------0--|--------------|
|--3-------------(8)--|-(8)-----5-----|----------8---|
|--1-----3----2-------|---------------|-2--3--2------|
|--1-----3----2--(6)--|-(6)s=3--------|-2--3--2--6---|
|--------1----0-------|---------------|-0--1--0------|


   ~~~~~~~~~~~~~~~~~~~~~~~~~~~~ PM ~~~~
  +W                 Q    +Q    Q  Q
|-----------------|-------------------|
|-----------------|-------------------|
|-(8)-------------|-[8]--([8])-----8--|
|-----------------|-------------------|
|-(6)-------------|-------------7--6--|
|-----------------|-------------0-----|
|
|                    PM---------|  ~~~~
|  |-3--|
|  E  E E H.         Q     Q    Q  Q
|-----------------|-------------------|
|---------4-------|-------------------|
|-------5---------|--3-------------8--|
|-----5-----------|--1-----3----2-----|
|--3--------------|--1-----3----2--6--|
|-----------------|--------1----0-----|


                     3/4
 ~~~~~~    PM--|       ~~~ PM    PM      PM--|
                                         |-3--|
  +H       Q    Q      Q   E  E  E  E    Q Q  Q Q
|-------------------|------------------|-----------|
|-------------------|------------------|-----------|
|-(8)---------------|------------------|-----------|
|-------------------|--7------9-----7--|-----11----|
|-(6)------6----3---|--0---0-(0)-0-(0)-|---8-------|
|----------4----1---|------------------|-6---------|
|
|~~~~~~                    PM    PM      PM--|
|                                        |-3--|
| +Q   Q   Q    Q      Q   E  E  E  E    Q Q  Q Q
|-------------------|------------------|-----------|
|----------0--------|------------------|-----------|
|-(8)-----------5---|-(5)-----7-----5--|------9----|
|-------------------|------------------|---6-------|
|-(6)s=2--(2)--(2)s=|==3---3-(3)-3-(3)-|-4---------|
|-------------------|------------------|-----------|


   3/4
       ~~~~~   PM ~~~~~                  PM
                                         |-3--|
    Q  Q  Q    Q  Q  Q     Q    Q   Q    Q Q  Q E E
||-----------|----------|--------------|------------|
||o----------|----------|--------------|--------0---|
||--------3--|-------3--|-------4------|------5-----|
||-----------|----------|--------------|------------|
||o----1-----|----1-----|-----------2--|---3--------|
||--0--------|-0--------|--0-----------|-0----------|
|
|   PM---------|  ~~~~~~~~~~~~  PM-------|
|                                        |-3--|
|   Q  Q  Q    Q  H       +Q    Q   Q    Q Q  Q E E
||-----------|----------|--------------|------------|
||o----------|----------|--------------|------------|
||-----------|----6-----|-(6)----------|--------0---|
||--2--3--3--|----------|--------------|-----10-----|
||o-2--1--1--|-7--4-----|-(4)--10--10--|---7--------|
||--0--1--1--|-0--0-----|-(0)---0---0--|-0----------|


                        5/4
     ~~~~~   PM  ~~~~~                 PM
  Q  Q  Q    Q   Q  Q      Q    Q   Q  E E +Q
|----------|-----------|------------------------|
|----------|-----------|------------------------|
|-------3--|--------3--|--------4--------5-(5)--|
|----------|-----------|------------------------|
|----1-----|-----1-----|------------2----3-(3)--|
|-0--------|-0---------|---0-----------0--------|
|
| PM----|        ~~~~~~~~~~~~~  PM-----|
| Q  Q  Q    Q   H        +Q    Q   Q  E E +Q
|----------|-----------|------------------------|
|----------|-----------|------------------------|
|----------|-----------|-----------------9-(9)--|
|----8--8--|----11-----|-(11)-------------------|
|-7--------|-----7-----|--(7)--10--10----7-(7)--|
|-0--6--6--|-0---0-----|--(0)---0---0--0-0-(0)--|


 3/4
     ~~~~~   PM ~~~~~                  PM
                                       |-3--|
  Q  Q  Q    Q  Q  Q     Q    Q   Q    Q Q  Q E E
|----------|----------|--------------|-------------|
|----------|----------|--------------|--------0----|
|-------3--|-------3--|-------4------|------5------|
|----------|----------|--------------|-------------|
|----1-----|----1-----|-----------2--|---3---------|
|-0--------|-0--------|--0-----------|-0-----------|
|
| PM---------|  ~~~~~~~~~~~~  PM-------|
|                                      |-3--|
| Q  Q  Q    Q  H       +Q    Q   Q    Q Q  Q E E
|----------|----------|--------------|-------------|
|----------|----------|--------------|-------------|
|----------|----6-----|-(6)----------|--------0----|
|-2--3--3--|----------|--------------|-----10------|
|-2--1--1--|-7--4-----|-(4)--10--10--|---7---------|
|-0--1--1--|-0--0-----|-(0)---0---0--|-0-----------|


                         1.                    2.
                         5/4                   7/8
  PM ~~~~~   PM-|    ~~   PM ~~~~~ PM~~~~~~     PM ~~~~~ PM
  Q  Q  Q    Q   Q   Q    Q  Q  Q  E E +Q       Q  Q  Q  E
|----------|------------|--------------------||-------------|
|----------|------------|-------------------o||-------------|
|----9-----|--------12--|----3-------6-(6)---||----3--------|
|----------|------------|--------------------||-------------|
|-------7--|----10------|-------1----4-(4)--o||-------1-----|
|-0--------|-0----------|-0--------0---------||-0--------0--|
|
| PM ~~~~~   PM-|    ~~   PM ~~~~~ PM~~~~~~     PM ~~~~~ PM
| Q  Q  Q    Q   Q   Q    Q  Q  Q  E E +Q       Q  Q  Q  E
|----------|------------|--------------------||-------------|
|----------|------------|-------------------o||-------------|
|----6-----|---------3--|------------9-(9)---||-------------|
|----------|------------|----5---------------||----5--------|
|-------4--|-----1------|------------7-(7)--o||-------------|
|-0--------|-0----------|-0-----3--0---------||-0-----3--0--|


 3/4                            5/4              3/4       5/4
  ~~                   ~~~~~~~~~~~~~~~~~~~~
  H.        E E H      H.        +H     H.        H.        +H     Q  H
|---------|----------|---------|----------------|---------|----------------|
|---------|----------|---------|----------------|---------|----------------|
|-6-------|-5--------|---------|----------------|-3-------|-(3)----6-------|
|---------|----------|-4-------|-(4)----3-------|---------|----------------|
|-4-------|-3--------|---------|----------------|-1-------|-(1)----4-------|
|---------|----------|-2-------|-(2)----1-------|---------|----------------|
|
| ~~                                    ~~~~~~~~~~~~~~~~~~~~~~~~~~~~~
| H.        E E H      H.        +H     H.        H.        +H     Q  H
|---------|----------|---------|----------------|---------|----------------|
|---------|----------|---------|----------------|---------|----------------|
|---------|----------|---------|----------------|---------|----------------|
|-4-------|-3--------|-4-------|-(4)----3-------|-3-------|-(3)----4-------|
|---------|----------|-4-------|-(4)----3-------|---------|----------------|
|-2-------|-1--------|-2-------|-(2)----1-------|-1-------|-(1)----2-------|


   4/4               3/4
                PM------|
    E E E E E E E E   E E E E E E   E E E E E E   Q.   Q.
||------------------|-------------|-------------|-----------|
||o-----------------|-------------|-------------|-----------|
||------------------|-------------|-------------|-----------|
||--3-------3-------|---------4---|-3-------3---|-3----4----|
||o-----------------|-------------|-------------|-3----4----|
||----1-0-1---1-1-1-|-1-1-0-1---1-|---1-0-1---1-|-1----2----|
|
|               PM------|
|   E E E E E E E E   E E E E E E   E E E E E E   Q.   Q.
||------------------|-------------|-------------|-----------|
||o-----------------|-------------|-------------|-----------|
||------------------|-------------|-------------|-----------|
||--3-------3-------|---------4---|-3-------3---|-3----4----|
||o-----------------|-------------|-------------|-3----4----|
||----1-0-1---1-1-1-|-1-1-0-1---1-|---1-0-1---1-|-1----2----|


                   1.
 4/4               3/4
              PM------|
  E E E E E E E E   E E E E  E  E
|-----------------|---------------|
|-----------------|---------------|
|-----------------|---------------|
|-3-------3-------|---------[3]s4s|
|-----------------|---------------|
|---1-0-1---1-1-1-|-1-1-0-1-------|
|
|             PM------|
| E E E E E E E E   E E E E  E  E
|-----------------|---------------|
|-----------------|---------------|
|-----------------|---------------|
|-3-------3-------|---------------|
|-----------------|---------------|
|---1-0-1---1-1-1-|-1-1-0-1-[1]s2-|


                     2.
 4/4                 3/4           4/4
                      PM|
  E E E E E E E E     E E E E E E   E E E E E E  E  E
|------------------||-------------|-------------------|
|-----------------o||-------------|-------------------|
|------------------||-------------|-------------------|
|-7-----7-----4----||-------------|-7-----7-----[3]s4-|
|---0-0---0-------o||-------------|---0-0---0---------|
|-----------2---2--||-1-1-0-1-1-2-|-----------1-------|
|
|                     PM|
| E E E E E E E E     E E E E E E   E E E E E E  E  E
|------------------||-------------|-------------------|
|-----------------o||-------------|-------------------|
|------------------||-------------|-------------------|
|-7-----7-----4----||-------------|-7-----7-----------|
|---0-0---0-------o||-------0-0-1-|---0-0---0---------|
|-----------2---2--||-1-1-0-------|-----------1-[1]s2-|


   3/4          5/8       3/4           5/8
    E E E Q.     Q  Q.     E E E E E E   +Q   +Q.
||-------------|---------|-------------|-------------|
||o------------|---------|-------------|-------------|
||-------------|---------|-------------|-------------|
||--3----------|-3--3----|-2-----2---2-|-(2)--(2)----|
||o------------|-3--3----|---0-0---0-0-|-(0)--(0)----|
||----1-1-1----|-1--1----|-----------0-|-(0)--(0)----|
|
|   E E E Q.     Q  Q.     E E E E E E   +Q   +Q.
||-------------|---------|-------------|-------------|
||o------------|---------|-------------|-------------|
||-------------|---------|-------------|-------------|
||--3----------|-3--3----|-2-----2---2-|-(2)--(2)----|
||o------------|-3--3----|---0-0---0-0-|-(0)--(0)----|
||----1-1-1----|-1--1----|-----------0-|-(0)--(0)----|


 3/4          5/8       3/4           5/8
                                   ~~~~~~~~~~~~~
  E E E Q.     Q  Q.     E E E E E E    Q   +Q.
|------------|---------|-------------|-------------||
|------------|---------|-------------|------------o||
|------------|---------|-------------|-------------||
|-3----------|-3--3----|-2-----2---2s|==7---(7)----||
|------------|-3--3----|---0-0---0-0-|-(0)--(0)---o||
|---1-1-1----|-1--1----|-------------|-------------||
|
|                                  ~~~~~~~~~~~~~
| E E E Q.     Q  Q.     E E E E E E    Q   +Q.
|------------|---------|-------------|-------------||
|------------|---------|-------------|------------o||
|------------|---------|-------------|-------------||
|-3----------|-3--3----|-2-----2---2s|==7---(7)----||
|------------|-3--3----|---0-0---0-0-|-(0)--(0)---o||
|---1-1-1----|-1--1----|-----------0-|-(0)--(0)----||


   4/4               3/4
                PM------|
    E E E E E E E E   E E E E E E   E E E E E E   Q.   Q.
||------------------|-------------|-------------|-----------|
||o-----------------|-------------|-------------|-----------|
||------------------|-------------|-------------|-----------|
||--3-------3-------|---------4---|-3-------3---|-3----4----|
||o-----------------|-------------|-------------|-3----4----|
||----1-0-1---1-1-1-|-1-1-0-1---1-|---1-0-1---1-|-1----2----|
|
|               PM------|
|   E E E E E E E E   E E E E E E   E E E E E E   Q.   Q.
||------------------|-------------|-------------|-----------|
||o-----------------|-------------|-------------|-----------|
||------------------|-------------|-------------|-----------|
||--3-------3-------|---------4---|-3-------3---|-3----4----|
||o-----------------|-------------|-------------|-3----4----|
||----1-0-1---1-1-1-|-1-1-0-1---1-|---1-0-1---1-|-1----2----|


                   1.
 4/4               3/4
              PM------|
  E E E E E E E E   E E E E  E  E
|-----------------|---------------|
|-----------------|---------------|
|-----------------|---------------|
|-3-------3-------|---------[3]s4s|
|-----------------|---------------|
|---1-0-1---1-1-1-|-1-1-0-1-------|
|
|             PM------|
| E E E E E E E E   E E E E  E  E
|-----------------|---------------|
|-----------------|---------------|
|-----------------|---------------|
|-3-------3-------|---------------|
|-----------------|---------------|
|---1-0-1---1-1-1-|-1-1-0-1-[1]s2-|


                     2.
 4/4                 3/4           4/4
                      PM|
  E E E E E E E E     E E E E E E   E E E E E E  E  E
|------------------||-------------|-------------------|
|-----------------o||-------------|-------------------|
|------------------||-------------|-------------------|
|-7-----7-----4----||-------------|-7-----7-----[3]s4-|
|---0-0---0-------o||-------------|---0-0---0---------|
|-----------2---2--||-1-1-0-1-1-2-|-----------1-------|
|
|                     PM|
| E E E E E E E E     E E E E E E   E E E E E E  E  E
|------------------||-------------|-------------------|
|-----------------o||-------------|-------------------|
|------------------||-------------|-------------------|
|-7-----7-----4----||-------------|-7-----7-----------|
|---0-0---0-------o||-------0-0-1-|---0-0---0---------|
|-----------2---2--||-1-1-0-------|-----------1-[1]s2-|


   3/4          5/8       3/4           5/8
    E E E Q.     Q  Q.     E E E E E E   +Q   +Q.
||-------------|---------|-------------|-------------|
||o------------|---------|-------------|-------------|
||-------------|---------|-------------|-------------|
||--3----------|-3--3----|-2-----2---2-|-(2)--(2)----|
||o------------|-3--3----|---0-0---0-0-|-(0)--(0)----|
||----1-1-1----|-1--1----|-----------0-|-(0)--(0)----|
|
|   E E E Q.     Q  Q.     E E E E E E   +Q   +Q.
||-------------|---------|-------------|-------------|
||o------------|---------|-------------|-------------|
||-------------|---------|-------------|-------------|
||--3----------|-3--3----|-2-----2---2-|-(2)--(2)----|
||o------------|-3--3----|---0-0---0-0-|-(0)--(0)----|
||----1-1-1----|-1--1----|-----------0-|-(0)--(0)----|


 3/4          5/8       3/4           5/8
                                   ~~~~~~~~~~~~~
  E E E Q.     Q  Q.     E E E E E E    Q   +Q.
|------------|---------|-------------|-------------||
|------------|---------|-------------|------------o||
|------------|---------|-------------|-------------||
|-3----------|-3--3----|-2-----2---2s|==7---(7)----||
|------------|-3--3----|---0-0---0-0-|-(0)--(0)---o||
|---1-1-1----|-1--1----|-------------|-------------||
|
|                                  ~~~~~~~~~~~~~
| E E E Q.     Q  Q.     E E E E E E    Q   +Q.
|------------|---------|-------------|-------------||
|------------|---------|-------------|------------o||
|------------|---------|-------------|-------------||
|-3----------|-3--3----|-2-----2---2s|==7---(7)----||
|------------|-3--3----|---0-0---0-0-|-(0)--(0)---o||
|---1-1-1----|-1--1----|-----------0-|-(0)--(0)----||


 4/4               3/4                                     5/4
  E E E E E E E E   E E E E E E   E E E E E E   Q.   Q.     W        +Q
|-----------------|-------------|-------------|-----------|---------------|
|-----------------|-------------|-------------|-----------|---------------|
|-----------------|-------------|-------------|-----------|---------------|
|-3-------3-------|---------3---|-3-------3---|-3----4----|-2--------(2)--|
|-----------------|-------------|-------------|-3----4----|-2--------(2)--|
|---1-1-1---1-1-1-|-1-1-1-1---1-|---1-1-1---1-|-1----2----|-0--------(0)--|
|
|                                               ~~~~~~~~~~~~~~~~~~~~~~~~~
| E E E E E E E E   E E E E E E   E E E E E E   H.          W        +Q
|-----------------|-------------|-------------|-----------|---------------|
|-----------------|-------------|-------------|-----------|---------------|
|-----------------|---------3---|-------------|-----------|---------------|
|-7-------7-------|-------------|-7-------6---|-7---------|---------------|
|---0-0-0---0-0-0-|-0-0-3p0---0-|---0-0-0---0-|-0---------|-7--------(7)--|
|-----------------|-------------|-------------|-----------|-0--------(0)--|


 4/4
  PM----|  ~~~~~~~~~~~~~~~~~~~~~~~~~~~~~~~~~~ PM  ~~~~~~~~~~~
  Q  Q  Q  Q    +W                 Q    +Q    Q   Q     +W
|-------------|-----------------|---------------------|-----------------|
|-------------|-----------------|---------------------|-----------------|
|----------8--|-(8)-------------|-[8]--([8])------8---|-(8)-------------|
|-2--3--2-----|-----------------|---------------------|-----------------|
|-2--3--2--6--|-(6)-------------|-------------7---6---|-(6)-------------|
|-0--1--0-----|-----------------|-------------0-------|-----------------|
|
| PM----|  ~                       PM---------|   ~~~~~~~~~~~
|                |-3--|
| Q  Q  Q  Q     E  E E H.         Q     Q    Q  +Q     +Q   Q  Q  Q
|-------------|-----------------|---------------------|-----------------|
|-------------|---------4-------|---------------------|------------0----|
|----------8--|-------5---------|--3-------------(8)--|-(8)-----5-------|
|-2--3--2-----|-----5-----------|--1-----3----2-------|-----------------|
|-2--3--2--6--|--3--------------|--1-----3----2--(6)--|-(6)s=3----------|
|-0--1--0-----|-----------------|--------1----0-------|-----------------|


 4/4
  PM----|  ~~~~~~~~~~~~~~~~~~~~~~~~~~~~~~~~~~ PM ~~~~~~~~~~   PM-|
  Q  Q  Q  Q    +W                 Q    +Q    Q  Q    +H      Q  Q
|-------------|-----------------|-------------------|---------------|
|-------------|-----------------|-------------------|---------------|
|----------8--|-(8)-------------|-[8]--([8])-----8--|-(8)-----------|
|-2--3--2-----|-----------------|-------------------|---------------|
|-2--3--2--6--|-(6)-------------|-------------7--6--|-(6)-----6--3--|
|-0--1--0-----|-----------------|-------------0-----|---------4--1--|
|
| PM----|  ~                       PM---------|  ~~~~~~~~~~
|                |-3--|
| Q  Q  Q  Q     E  E E H.         Q     Q    Q  Q    +Q   Q  Q  Q
|-------------|-----------------|-------------------|---------------|
|-------------|---------4-------|-------------------|---------0-----|
|----------8--|-------5---------|--3-------------8--|-(8)--------5--|
|-2--3--2-----|-----5-----------|--1-----3----2-----|---------------|
|-2--3--2--6--|--3--------------|--1-----3----2--6--|-(6)s=2--------|
|-0--1--0-----|-----------------|--------1----0-----|---------------|


 4/4
  PM----|  ~~~~~~~~~~~~~~~~~~~~~~
  Q  Q  Q  Q    +W
|-------------|-----------------|
|-------------|-----------------|
|----------8--|-(8)-------------|
|-2--3--2-----|-----------------|
|-2--3--2--6--|-(6)-------------|
|-0--1--0-----|-----------------|
|
| PM----|  ~
|                |-3--|
| Q  Q  Q  Q     E  E E H.
|-------------|-----------------|
|-------------|---------4-------|
|----------8--|-------5---------|
|-2--3--2-----|-----5-----------|
|-2--3--2--6--|--3--------------|
|-0--1--0-----|-----------------|


 ~~~~~~~~~~~~ PM  ~~~~~~~~~~~           PM----|  ~
   Q    +Q    Q   Q     +W              Q  Q  Q  Q
|---------------------|---------------|--------------|
|---------------------|---------------|--------------|
|-[8]--([8])------8---|-(8)-----------|----------8---|
|---------------------|---------------|-2--3--2------|
|-------------7---6---|-(6)-----------|-2--3--2--6---|
|-------------0-------|---------------|-0--1--0------|
|
|  PM---------|   ~~~~~~~~~~~           PM----|  ~
|  Q     Q    Q  +Q     +Q   Q  Q  Q    Q  Q  Q  Q
|---------------------|---------------|--------------|
|---------------------|------------0--|--------------|
|--3-------------(8)--|-(8)-----5-----|----------8---|
|--1-----3----2-------|---------------|-2--3--2------|
|--1-----3----2--(6)--|-(6)s=3--------|-2--3--2--6---|
|--------1----0-------|---------------|-0--1--0------|


   ~~~~~~~~~~~~~~~~~~~~~~~~~~~~ PM ~~~~
  +W                 Q    +Q    Q  Q
|-----------------|-------------------|
|-----------------|-------------------|
|-(8)-------------|-[8]--([8])-----8--|
|-----------------|-------------------|
|-(6)-------------|-------------7--6--|
|-----------------|-------------0-----|
|
|                    PM---------|  ~~~~
|  |-3--|
|  E  E E H.         Q     Q    Q  Q
|-----------------|-------------------|
|---------4-------|-------------------|
|-------5---------|--3-------------8--|
|-----5-----------|--1-----3----2-----|
|--3--------------|--1-----3----2--6--|
|-----------------|--------1----0-----|


                     3/4
 ~~~~~~    PM--|       ~~~ PM    PM      PM--|
                                         |-3--|
  +H       Q    Q      Q   E  E  E  E    Q Q  Q Q
|-------------------|------------------|-----------|
|-------------------|------------------|-----------|
|-(8)---------------|------------------|-----------|
|-------------------|--7------9-----7--|-----11----|
|-(6)------6----3---|--0---0-(0)-0-(0)-|---8-------|
|----------4----1---|------------------|-6---------|
|
|~~~~~~                    PM    PM      PM--|
|                                        |-3--|
| +Q   Q   Q    Q      Q   E  E  E  E    Q Q  Q Q
|-------------------|------------------|-----------|
|----------0--------|------------------|-----------|
|-(8)-----------5---|-(5)-----7-----5--|------9----|
|-------------------|------------------|---6-------|
|-(6)s=2--(2)--(2)s=|==3---3-(3)-3-(3)-|-4---------|
|-------------------|------------------|-----------|


 4/4
  ~  PM    PM    PM          PM|     PM    PM
  Q  E  E  E  E  E  E     E  E E  E  E  E  E  E
|----------------------|-------------------------|
|----------------------|-------------------------|
|-3-----4-----3-----4s=|==3-------3-----4-----3s=|
|----------------------|-------------------------|
|-1--1-(1)-1-(1)-1-(1)-|-(1)-1-1-(1)-1-(1)-1-(1)s|
|----------------------|-------------------------|
|
| ~  PM    PM    PM          PM|     PM    PM
| Q  E  E  E  E  E  E     E  E E  E  E  E  E  E
|----------------------|-------------------------|
|----------------------|-------------------------|
|-3-----4-----3-----4s=|==3-------3-----4-----3s=|
|----------------------|-------------------------|
|-1--1-(1)-1-(1)-1-(1)-|-(1)-1-1-(1)-1-(1)-1-(1)s|
|----------------------|-------------------------|


    PM|     PM    PM          PM|     PM    PM
  E E E  E  E  E  E  E     E  E E  E  E  E  E  E
|-----------------------|--------------------------|
|-----------------------|--------------------------|
|-6------7-----6-----4s=|==6-------6-----7-----9---|
|-----------------------|--------------------------|
|-4-4-4-(4)-4-(4)-4-(4)-|-(4)-4-4-(4)-4-(4)-4-(4)--|
|-----------------------|--------------------------|
|
|   PM|     PM    PM          PM|     PM    PM
| E E E  E  E  E  E  E     E  E E  E  E  E  E  E
|-----------------------|--------------------------|
|-----------------------|--------------------------|
|-6------7-----6-----4s=|==6-------6-----7-----9---|
|-----------------------|--------------------------|
|-4-4-4-(4)-4-(4)-4-(4)-|-(4)-4-4-(4)-4-(4)-4-(4)--|
|-----------------------|--------------------------|


  ~  PM    PM    PM          PM|     PM    PM
  Q  E  E  E  E  E  E     E  E E  E  E  E  E  E
|----------------------|-------------------------|
|----------------------|-------------------------|
|-3-----4-----3-----4s=|==3-------3-----4-----3s=|
|----------------------|-------------------------|
|-1--1-(1)-1-(1)-1-(1)-|-(1)-1-1-(1)-1-(1)-1-(1)-|
|----------------------|-------------------------|
|
| ~  PM    PM    PM          PM|     PM    PM
| Q  E  E  E  E  E  E     E  E E  E  E  E  E  E
|----------------------|-------------------------|
|----------------------|-------------------------|
|-------7-----6--------|----------6-----7--------|
|-5-----------------6s=|==5-------------------5s=|
|----------------------|-------------------------|
|-3--3-(3)-3-(3)-3-(3)-|-(3)-3-3-(3)-3-(3)-3-(3)s|


    PM|     PM    PM          PM|     PM    PM
  E E E  E  E  E  E  E     E  E E  E  E  E  E  E
|-----------------------|-------------------------|
|-----------------------|-------------------------|
|-6------7-----6-----4s=|==6-------7----10----10--|
|-----------------------|-------------------------|
|---4-4-(4)-4-(4)-4-(4)-|-(4)-4-4-(4)-4-(4)-4-(4)-|
|-----------------------|-------------------------|
|
|   PM|     PM    PM          PM|     PM    PM
| E E E  E  E  E  E  E     E  E E  E  E  E  E  E
|-----------------------|-------------------------|
|-----------------------|-------------------------|
|-----------------------|----------------7-----7--|
|-8------9-----8-----6s=|==8-------9--------------|
|-----------------------|-------------------------|
|-6-6-6-(6)-6-(6)-6-(6)-|-(6)-6-6-(6)-6-(6)-6-(6)-|


    PM|           ~~~~~~~~
  E E E E E  E  E E   +E  Q  E E E E  E
|-------------------|--------------------|
|-------------------|--------------------|
|-9----------4----3-|-(3)-------------3s=|
|-------------------|--------------------|
|-------4-----------|-----2--4p2---------|
|---0-0---3-(3)-3---|-----0------0h2-(2)-|
|
|   PM|   PM    PM~~~~~~~~~~
| E E E E E  E  E E   +E  Q  E E E E  E
|-------------------|--------------------|
|-------------------|--------------------|
|-6-----------------|--------6p4------6s=|
|-------------------|--------------------|
|-------7---10----4-|-(4)-7--------------|
|---0-0---6-----0---|-----0------0h6-(6)-|


    PM|     PM    PM         PM|     PM    PM|
  E E E  E  E  E  E  E     E E E  E  E  E  E E
|-----------------------|----------------------|
|-----------------------|----------------------|
|-6---------------------|---------6-----7------|
|-----------------------|----------------------|
|--------4-----2-----1s=|==4-------------------|
|---0-3-----0-----0-----|----0-3-(3)-3-(3)-3-3-|
|
|   PM|     PM    PM         PM|     PM    PM|
| E E E  E  E  E  E  E     E E E  E  E  E  E E
|-----------------------|----------------------|
|-----------------------|----------------------|
|-9---------------------|----------------------|
|-------11-----9-----8s=|=11------8-----8------|
|-----------------------|----------------------|
|---0-6-(6)-6-(6)-6-(6)-|----0-6-(6)-6-(6)-6-6-|


     PM|            ~~~~~~~~~
   E E E E E  E  E  E    +E   Q   E E E E  E
|----------------------|----------------------|
|----------------------|----------------------|
|-------------4-----3--|-(3)---------------3s=|
|----------------------|----------------------|
|--7-----4-------------|------2---4p2---------|
|----0-0---3-(3)-3-(3)-|------0-------0h2-(2)-|
|
|    PM|   PM    PM ~~~~~~~~~~~~
|  E E E E E  E  E  E    +E   Q   E E E E  E
|----------------------|----------------------|
|----------------------|----------------------|
|----------------------|-------------------6s=|
|----------------------|---------11p9---------|
|-10-----7---10-----7--|-(7)-10---------------|
|----0-0---6-----0-----|------0-------0h6-(6)-|


                         5/4
    PM|     PM    PM         PM|     PM    PM
  E E E  E  E  E  E  E     E E E  E  E  E  E  E  Q
|-----------------------|--------------------------|
|-----------------------|--------------------------|
|-6---------------------|---------6-----7-----6----|
|-----------------------|--------------------------|
|--------4-----2-----1s=|==4-----------------------|
|---0-3-----0-----0-----|----0-3-(3)-3-(3)-3-(3)---|
|
|   PM|     PM    PM         PM|     PM    PM
| E E E  E  E  E  E  E     E E E  E  E  E  E  E  Q
|-----------------------|--------------------------|
|-----------------------|--------------------------|
|-9---------------------|--------------------------|
|--------8-----9-----8s=|=11------5-----5-----5----|
|-----------------------|--------------------------|
|---0-6-(6)-6-(6)-6-(6)-|----0-3-(3)-3-(3)-3-(3)---|


   3/4
       ~~~~~   PM ~~~~~                  PM
                                         |-3--|
    Q  Q  Q    Q  Q  Q     Q    Q   Q    Q Q  Q E E
||-----------|----------|--------------|------------|
||o----------|----------|--------------|--------0---|
||--------3--|-------3--|-------4------|------5-----|
||-----------|----------|--------------|------------|
||o----1-----|----1-----|-----------2--|---3--------|
||--0--------|-0--------|--0-----------|-0----------|
|
|   PM---------|  ~~~~~~~~~~~~  PM-------|
|                                        |-3--|
|   Q  Q  Q    Q  H       +Q    Q   Q    Q Q  Q E E
||-----------|----------|--------------|------------|
||o----------|----------|--------------|------------|
||-----------|----6-----|-(6)----------|--------0---|
||--2--3--3--|----------|--------------|-----10-----|
||o-2--1--1--|-7--4-----|-(4)--10--10--|---7--------|
||--0--1--1--|-0--0-----|-(0)---0---0--|-0----------|


                        5/4
     ~~~~~   PM  ~~~~~                 PM
  Q  Q  Q    Q   Q  Q      Q    Q   Q  E E +Q
|----------|-----------|------------------------|
|----------|-----------|------------------------|
|-------3--|--------3--|--------4--------5-(5)--|
|----------|-----------|------------------------|
|----1-----|-----1-----|------------2----3-(3)--|
|-0--------|-0---------|---0-----------0--------|
|
| PM----|        ~~~~~~~~~~~~~  PM-----|
| Q  Q  Q    Q   H        +Q    Q   Q  E E +Q
|----------|-----------|------------------------|
|----------|-----------|------------------------|
|----------|-----------|-----------------9-(9)--|
|----8--8--|----11-----|-(11)-------------------|
|-7--------|-----7-----|--(7)--10--10----7-(7)--|
|-0--6--6--|-0---0-----|--(0)---0---0--0-0-(0)--|


 3/4
     ~~~~~   PM ~~~~~                  PM
                                       |-3--|
  Q  Q  Q    Q  Q  Q     Q    Q   Q    Q Q  Q E E
|----------|----------|--------------|-------------|
|----------|----------|--------------|--------0----|
|-------3--|-------3--|-------4------|------5------|
|----------|----------|--------------|-------------|
|----1-----|----1-----|-----------2--|---3---------|
|-0--------|-0--------|--0-----------|-0-----------|
|
| PM---------|  ~~~~~~~~~~~~  PM-------|
|                                      |-3--|
| Q  Q  Q    Q  H       +Q    Q   Q    Q Q  Q E E
|----------|----------|--------------|-------------|
|----------|----------|--------------|-------------|
|----------|----6-----|-(6)----------|--------0----|
|-2--3--3--|----------|--------------|-----10------|
|-2--1--1--|-7--4-----|-(4)--10--10--|---7---------|
|-0--1--1--|-0--0-----|-(0)---0---0--|-0-----------|


                         1.                    2.
                         5/4                   7/8
  PM ~~~~~   PM-|    ~~   PM ~~~~~ PM~~~~~~     PM ~~~~~ PM
  Q  Q  Q    Q   Q   Q    Q  Q  Q  E E +Q       Q  Q  Q  E
|----------|------------|--------------------||-------------|
|----------|------------|-------------------o||-------------|
|----9-----|--------12--|----3-------6-(6)---||----3--------|
|----------|------------|--------------------||-------------|
|-------7--|----10------|-------1----4-(4)--o||-------1-----|
|-0--------|-0----------|-0--------0---------||-0--------0--|
|
| PM ~~~~~   PM-|    ~~   PM ~~~~~ PM~~~~~~     PM ~~~~~ PM
| Q  Q  Q    Q   Q   Q    Q  Q  Q  E E +Q       Q  Q  Q  E
|----------|------------|--------------------||-------------|
|----------|------------|-------------------o||-------------|
|----6-----|---------3--|------------9-(9)---||-------------|
|----------|------------|----5---------------||----5--------|
|-------4--|-----1------|------------7-(7)--o||-------------|
|-0--------|-0----------|-0-----3--0---------||-0-----3--0--|


  Q=100
 4/4
  H                 S      E.    Q
|----------------------------------------|
|----------------------------------------|
|-6-----------------5--------------------|
|----------------------------------------|
|-4-----------------3--------------------|
|----------------------------------------|
|
| H                 S      E.    Q
|----------------------------------------|
|----------------------------------------|
|----------------------------------------|
|-5-----------------4--------------------|
|----------------------------------------|
|-3-----------------2--------------------|
|
| Gtr III
| ~~~~~~~~~~~~~~~~~~~~~~~~~~~~~~~~~~~~~~~~
| |--3---| |--3--|  |----3-----| |--3--|
| E +E   E E +E  E +E  +E      E E +E  E
|----------------------------------------|
|----------------------------------------|
|-9-(9)-10-9-(9)-8-(8)-(8)----10-9-(9)-8-|
|----------------------------------------|
|----------------------------------------|
|----------------------------------------|


                                            ~     ~       ~     ~
   E      E    Q   E      E      Q      Q   Q  Q  Q    Q  Q  Q  Q
|------------------------------------|---------------|---------------|
|------------------------------------|---------------|---------------|
|--4---------------5-----------------|------6-----6--|----6-----6----|
|------------------------------------|---------------|---------------|
|--2---------------3-----------------|------4-----4--|----4-----4----|
|------------------------------------|---------------|---------------|
|
|                                           ~     ~       ~     ~
|  E      E    Q   E      E      Q      Q   Q  Q  Q    Q  Q  Q  Q
|------------------------------------|---------------|---------------|
|------------------------------------|---------------|---------------|
|------------------------------------|---------------|---------------|
|--4---------------3-----------------|------7-----7--|----7-----7----|
|------------------------------------|------0-----0--|----0-----0----|
|--2---------------1-----------------|---------------|---------------|
|
|~~~~~~~~~~~~~~~~~~~~~~~~~~~~~~~~~~~~~~~~~~
|  |----3----|     |----3----|
| +E  +E     E Q  +E  +E     E  +Q     +W              W
|------------------------------------|---------------|---------------|
|-----------10-9--(9)-(9)------------|---------------|---------------|
|-(8)-(8)----------------------------|---------------|---------------|
|------------7-6--(6)-(6)------------|---------------|---------------|
|---------------------------[4]-(4)--|-(4)-----------|---------------|
|------------------------------------|---------------|---------------|


           ~~                    ~~                  ~~               ~
  Q        Q          Q          Q          Q        Q          Q     Q
|-----------------------------------------|------------------------------|
|-----------------------------------------|------------------------------|
|----------6---------------------6--------|----------6----------------6--|
|-----------------------------------------|------------------------------|
|----------4---------------------4--------|----------4----------------4--|
|-----------------------------------------|------------------------------|
|
|          ~~                    ~~                  ~~               ~
| Q        Q          Q          Q          Q        Q          Q     Q
|-----------------------------------------|------------------------------|
|-----------------------------------------|------------------------------|
|-----------------------------------------|------------------------------|
|----------7---------------------7--------|----------7----------------7--|
|----------0---------------------0--------|----------0----------------0--|
|-----------------------------------------|------------------------------|
|
| ~~~~~~~~~~~~~~~~~~~~~~~~~~~~~~~~~~~~~~~~~~~~~~~~~~~~~~~~~~~~~~~~~~  ~~~~
| |--3--|  |---3---|  |---3---|  |--3---|   |--3--|  |---3---|  |-3-|
| E +E  E  E  +E   E  E  +E   E  E  +E  E   E +E  E  E  +E   E  E E E Q
|-----------------------------------------|------------------------------|
|-----------------------------------------|------------------------------|
|-----------------------------------------|---------------------------6--|
|-----------------------------------------|------------------------------|
|-4-(4)s9h12-(12)-16s21-(21)s16p12-(12)p9s|=4-(4)s9h12-(12)-16s21--------|
|-----------------------------------------|------------------------------|


             ~~                    ~~                  ~~     ~~
   Q         Q          Q          Q          Q        Q  Q   Q
|-------------------------------------------|----------------------|
|-------------------------------------------|----------------------|
|-------------------------------------------|----------------------|
|------------6---------------------6--------|----------6------6----|
|-------------------------------------------|----------------------|
|------------4---------------------4--------|----------4------4----|
|
|            ~~                    ~~                  ~~     ~~
|  Q         Q          Q          Q          Q        Q  Q   Q
|-------------------------------------------|----------------------|
|-------------------------------------------|----------------------|
|------------6---------------------6--------|----------6------6----|
|-------------------------------------------|----------------------|
|------------4---------------------4--------|----------4------4----|
|-------------------------------------------|----------------------|
|
|                                                      >
|~~~~~~~~~~~~~~~~~~~~~~~~~~~~~~~~~~~~~~~~~~~~~~~~~~~~~~~~~~~~~~~
|  |--3---|  |---3---|  |---3---|  |--3---|   |--3--|
| +E  +E  E  E  +E   E  E  +E   E  E  +E  E   E +E  E  H      Q
|-------------------------------------------|----------------------|
|-------------------------------------------|----------------------|
|-(6)-(6)s9h13-(13)-18s21-(21)s18p13-(13)p9s|=6-(6)s9h13-----13----|
|-------------------------------------------|----------------------|
|-------------------------------------------|----------------------|
|-------------------------------------------|----------------------|


                ~~               ~~~              ~~             ~
    Q           Q           Q    Q     Q          Q          Q   Q
|-----------------------------------|-------------------------------|
|-----------------------------------|-------------------------------|
|---------------8-------------------|-------------8--------------6--|
|-----------------------------------|-------------------------------|
|---------------6----------------4--|-------------6--------------4--|
|-----------------------------------|-------------------------------|
|
|               ~~               ~~~              ~~             ~
|   Q           Q           Q    Q     Q          Q          Q   Q
|-----------------------------------|-------------------------------|
|-----------------------------------|-------------------------------|
|-----------------------------------|-------------------------------|
|---------------6-------------------|-------------6-----------------|
|--------------------------------7--|----------------------------7--|
|---------------4----------------4--|-------------4--------------4--|
|
|                                ~~~~~~~~~~~~~~~~~~~~~~~~~~~~~~~~~~~~
|   |---3----|                         |---3---|  |---3---|
|  +E   +E   E  S  S  S  S  E E  Q     E  +E   E  E  +E   E  E E Q
|-----------------------------------|-------------------------------|
|-----------------------------------|--------------------13---------|
|-(13)-(13)-14-13-12-12-12-12-------|---------14-----------------9--|
|-----------------------------------|-------------------------------|
|-------------------------------11s=|=10-(10)----11-(11)----10------|
|-----------------------------------|-------------------------------|


   E      E    Q        E      E    Q         E E  E E E.  S Q
|-------------------------------------------|-------------------*|
|-------------------------------------------|-------------------*|
|--6--------------------5-------------------|-4-----------------*|
|-------------------------------------------|-----12---7--------*|
|--4--------------------3-------------------|-2----8---9--------*|
|-------------------------------------------|-------------------*|
|
|  E      E    Q        E      E    Q         E E  E E E.  S Q
|-------------------------------------------|-------------------*|
|-------------------------------------------|-------------------*|
|-------------------------------------------|-----11------------*|
|--5--------------------4-------------------|-4----7---4--------*|
|-------------------------------------------|----------4--------*|
|--3--------------------2-------------------|-2-----------------*|
|
|~~~~~~~~~~~~~~~~~~~~~~~~~~~~~~~~~~~~~~~~~~~
|  |----3----| |--3--|  |----3----| |--3--|
| +E  +E     E E +E  E +E  +E     E E +E  E   W
|-------------------------------------------|-------------------*|
|-------------------------------------------|-------------------*|
|-(9)-(9)---10-9-(9)-8-(8)-(8)---10-9-(9)-8-|-------------------*|
|-------------------------------------------|-------------------*|
|-------------------------------------------|-------------------*|
|-------------------------------------------|-------------------*|


End.

            
            
Suggest correction
Creating personal tab
Creating personal tab
You can edit any tab online and save it as your Personal.

You can edit, replace or remove any tab part or add personal notes – all changes will be seen only by you.

Personal tabs can be accessed anytime from any device, even offline.
Learn more »
Give kudos to tab author, rate the tab!
1 2 3 4 5
comments
print report bad tab
guest
You may want to rate the tab now too:
select rating
Wanna post a correction for this tab? Suggest correction