Oops, an error
Loading. Please wait.

Giuliano Poi Sta Male tab

1,974 views 1 this week
1 commentread comment
1 2 3 4 5
3 more votes to show rating
add to favorites
×
Save as Personal and add changes to this tab that will be seen only by you. Learn more ›
×
You can save this tab as Personal to edit and correct it or add notes. All changes will be seen only by you. Learn more »
launch autoscroll
font size
0
reset
how to read this tab
guitar tuner
edit
Autoscroll
slow
fast
+/-
esc
set tempo
stop
Author
Difficulty
Song:Giuliano poi sta male
Artist:Negramaro
Album:La Finestra
Tabbed by Harry Scarlet

Beautiful song from a great italian band...hope you like my tab..it's very easy
and sounds very good with the song...if you have comments or corrections my mail is
harry-89@hotmail.it

enjoy  u.u

Intro

noise on G+

e------------------------------------------------|
b--8-3--8-10----8-5--8-10----7-3--7-10----8-5-4--|
g------------------------------------------------|
d------------------------------------------------|
a------------------------------------------------|
e------------------------------------------------|
  G+           C+            B-       C+  Eb+


verse

G+        B-


c+        D+


G+        B-


C+        Eb+


pre-chorus

e-2--------0------   x2   e---------|
b-3-let----1-let--        b---------|
g-2-ring---2-ring-        g--8------|
d-o--------2------        d--8------|
a----------0------        a--6------|
e-----------------        e---------|


chorus

e----------------------------------------------------------------------|
b----------------------------------------------------------------------|
g----------------------------------------------------------------------|
d--5---------------------6----------------------7----------------------|
a--5---------------------5----------------------7----------------------|
e--3---------------------4----------------------5----------------------|
nome giuliano poi sta    male e vuoi che cambi   nome mi chiedi quella

   G+                    E7                     A-

(for the strum of the chords listen to the song)


e-------------------------|
b-------------------------|
g--7--5----4--------------|
d--7--5----*----7---------|
a--5--3----2----*---------|
e---------------5---------|
 vita natu-rale in riva al

   D+ c+   D7


pre-verse


mare....al mare....

G+


verse

G+        B-


C+        Eb+


pre-chorus

e-2--------0------   x2   e---------|
b-3-let----1-let--        b---------|
g-2-ring---2-ring-        g--8------|
d-o--------2------        d--8------|
a----------0------        a--6------|
e-----------------        e---------|


chorus

e----------------------------------------------------------------------|
b----------------------------------------------------------------------|
g----------------------------------------------------------------------|
d--5---------------------6----------------------7----------------------|
a--5---------------------5----------------------7----------------------|
e--3---------------------4----------------------5----------------------|
1 nome giuliano poi sta  male e vuoi che cambi  nome mi chiedi quella
2 mare ed io che posso   fare se non ca,biare   nome allora puoi chia-


   G+                    E7                     A-

(for the strum of the chords listen to the song)

e-------------------------------------|
b-------------------------------------|
g--7----5------4----------------------|
d--7----5------*------7-----------5---|
a--5----3------2------*-----------5---|
e---------------------5-----------3---|
1 vita  natu   -rale  in riva al 2 tanto    io non cambio
2-marmi come   più ti piace

   D+   c+     D7

repeat intro

chorus

e----------------------------------------------------------------------|
b----------------------------------------------------------------------|
g----------------------------------------------------------------------|
d--5---------------------6----------------------7----------------------|
a--5---------------------5----------------------7----------------------|
e--3---------------------4----------------------5----------------------|
1 nome giuliano poi sta  male e vuoi che cambi  nome mi chiedi quella
2 mare ed io che posso   fare se non ca,biare   nome allora puoi chia-


   G+                    E7                     A-

(for the strum of the chords listen to the song)

e-------------------------------------|
b-------------------------------------|
g--7----5------4----------------------|
d--7----5------*------7-----------5---|
a--5----3------2------*-----------5---|
e---------------------5-----------3---|
1 vita  natu   -rale  in riva al 2
2-marmi come   più ti piace
3 chiamami come ti piace
4 scegli un nome e datti pace     tanto    io non cambio
   D+   c+     D7

            
            
Suggest correction
Creating personal tab
Creating personal tab
You can edit any tab online and save it as your Personal.

You can edit, replace or remove any tab part or add personal notes – all changes will be seen only by you.

Personal tabs can be accessed anytime from any device, even offline.
Learn more »
Give kudos to tab author, rate the tab!
1 2 3 4 5
comments
print report bad tab
1 comment total.
0 reply
harryscarlet 31 Nov 06, 2008 04:34 AM

i made a mistake,'coz i said to repeat the intro after the second chorus,but that part it's a little different from the intro..that's the correct one

e--------------------------------------------------|
b--8-3--8-10----8-5--8-10----7-3--7-10----8-10-11--|
g--------------------------------------------------|
d--------------------------------------------------|
a--------------------------------------------------|
e--------------------------------------------------|


and the second chord of the chorus is not E7,but E+...so the tab of the chord is

e------
b------
g------
d--6---
a--*---
e--4---

and the bass play the key-note(E)

guest
You may want to rate the tab now too:
select rating
Wanna post a correction for this tab? Suggest correction