Oops, an error
Loading. Please wait.

Un Passo Indietro tab

version 2
version 2

Whole song

28,844 views 30 this week
no commentswrite comment
1 2 3 4 5
x 5
add to favorites
×
Save as Personal and add changes to this tab that will be seen only by you. Learn more ›
×
You can save this tab as Personal to edit and correct it or add notes. All changes will be seen only by you. Learn more »
launch autoscroll
font size
0
reset
how to read this tab
guitar tuner
edit
Autoscroll
slow
fast
+/-
esc
set tempo
stop
Author
[Intro]
e|------------------0-----------------|
B|-2-------2--2p0-------2-------------|
G|-2-----2---2----2---2---------------|
D|-----2------------------------------|
A|-0----------------------------------|
E|-------------------------5--4--5--2-|

e|-----------2-------------2-2222-2222-22--0---------222--000-000-|
B|-----2-0---2-2---5/3-2-3-3-3333-3333-33----3-------333--000-000-|
G|---2-----2-------4/2-2-4-4-4444-4444-44------2-1h2-222--111-111-|
D|-4-----------------------4-4444-4444-44------------444--222-222-|
A|-------------------------2-2222-2222-22------------222--222-222-|
E|-------------------------X-xxxx-xxxx-xx-----------------000-000-|

[Verse]
A                               
un passo indietro ed io già so
F#m                                  Bm
di avere torto e non ho più le parole
                E
che si muovono sole
A 
un passo avanti e il cielo è blu
F#m                                   Bm
e tutto il resto non pesa più come queste tue parole
                E
che si muovono sole

[Chorus]
C#m         F#m
come sempre sei
C#m       F#m
nell'aria sei
C#m      F#m
tu aria vuoi
Bm
e mi uccidi
C#m         F#m
come sempre sei
C#m       F#m
nell'aria sei
C#m     F#m
tu aria dai 
Bm 
e mi uccidi
E
tu come aria in vena sei
A  F#m

[Verse]
A5                       A   A           F#m
un passo indietro ed ora tu, tu non ridi più
                                            Bm   
e tra le mani aria stringi e non trovi le parole
                                  E
e ci riprovi acora a muovermi il sole
ancora un passo, un altro ancora
A                                       F#m
un passo avanti ed ora io, io non parlo più                     
e tra le mani mani stringo
                  Bm
a che servon le parole
                            E
amore dai, dai muovimi il sole perchè

[Chorus]
C#m          F#m
se nell'aria sei
C#m         F#m
tu che aria vuoi
C#m         F#m   
ma che aria dai 
Bm
se poi mi uccidi
C#m         F#m
tu che aria sei
C#m         F#m
ma che aria vuoi
C#m         F#m
tu che aria dai
           Bm
se poi mi uccidi
                           E
tu come, tu come aria in vena sei.

[Outro]
e|------------------0-----------------|
B|-2-------2--2p0-------2-------------|
G|-2-----2---2----2---2---------------|
D|-----2------------------------------|
A|-0----------------------------------|
E|-------------------------5--4--5--2-|

e|-----------2-------------2-2222-2222-22--0---------222--000-000-|
B|-----2-0---2-2---5/3-2-3-3-3333-3333-33----3-------333--000-000-|
G|---2-----2-------4/2-2-4-4-4444-4444-44------2-1h2-222--111-111-|
D|-4-----------------------4-4444-4444-44------------444--222-222-|
A|-------------------------2-2222-2222-22------------222--222-222-|
E|-------------------------X-xxxx-xxxx-xx-----------------000-000-|


************************************

| p  Pull-off
| /  Slide up
| h  Hammer-on
| x  Dead note

************************************

            
            
Suggest correction
Creating personal tab
Creating personal tab
You can edit any tab online and save it as your Personal.

You can edit, replace or remove any tab part or add personal notes – all changes will be seen only by you.

Personal tabs can be accessed anytime from any device, even offline.
Learn more »
comments
print report bad tab
guest
You may want to rate the tab now too:
select rating
Wanna post a correction for this tab? Suggest correction