Oops, an error
Loading. Please wait.

La Verdad Parte 3 tab

12 views 1 this week
no commentswrite comment
1 2 3 4 5
3 more votes to show rating
add to favorites
×
Save as Personal and add changes to this tab that will be seen only by you. Learn more ›
×
You can save this tab as Personal to edit and correct it or add notes. All changes will be seen only by you. Learn more »
launch autoscroll
font size
0
reset
how to read this tab
guitar tuner
edit
Autoscroll
slow
fast
+/-
esc
set tempo
stop
Intro.

(Hablado)
La verdad está en las calles, en las plazas,las esquinas,
enredada en las aceras y en las casas escondida.
La verdad está en el fuego mas nos busquen las cenizas,
recordándonos que es tiempo de que hablemos de noticias.

                       G                       Em
E|---------------------3-|---------------------0-|
A|-----------------------|-----------------------|
D|-0/2-------------2/0---|-0/2-------------2/0---|
G|-----0/2-----2/0-------|-----0/2-----2/0-------|
B|---------1/0-----------|---------1/0-----------|
e|-----------------------|-----------------------|

                       C                       D
E|-----------------------|-----------------------|
A|---------------------3-|-----------------------|
D|-0/2-------------2/0---|-0/2-------------2/0-0-|
G|-----0/2-----2/0-------|-----0/2-----2/0-------|
B|---------1/0-----------|---------1/0-----------|
e|-----------------------|-----------------------|

(Cantado)
                   G
Y la crisis nos golpea
                       Em
con cruda sed en estos días,
                     C
que dirá la madre al hijo
                  D
cuando falte la comida.
                         G
Cuando el sueldo ya no alcanza
                     Em
y los problemas se duplican
                    C
y los ricos son más pocos
                 D
y los pobres mayoría ahahaaaaaa.

                       G                       Em
E|---------------------3-|---------------------0-|
A|-----------------------|-----------------------|
D|-0/2-------------2/0---|-0/2-------------2/0---|
G|-----0/2-----2/0-------|-----0/2-----2/0-------|
B|---------1/0-----------|---------1/0-----------|
e|-----------------------|-----------------------|


                       C                       D
E|-----------------------|-----------------------|
A|---------------------3-|-----------------------|
D|-0/2-------------2/0---|-0/2-------------2/0-0-|
G|-----0/2-----2/0-------|-----0/2-----2/0-------|
B|---------1/0-----------|---------1/0-----------|
e|-----------------------|-----------------------|

                  G
Y estos años nos atrapan
                  Em
escondiéndonos la risa,
              C
encadenan y secuestran
                     D
la esperanza y la alegría.
                           G
Que es del hombre y de sus sueños
                  Em
de su alma tan sencilla,
                     C
no te duermas sin el canto
                        D
que dé al hombre una sonrisa.
                     G
Y el común de tantos rostros
                  E
sonriendo en la política,
                 C
exigiendo voto a voto
                     D
que se elijan más mentiras.
               G
Yo soy pueblo, yo soy patria,
                Em
y te roban y asesinan,
                  C
se alimentan como fieras
                     D
de tu sangre y de tu vida ahaha.

                       G                       Em
E|---------------------3-|---------------------0-|
A|-----------------------|-----------------------|
D|-0/2-------------2/0---|-0/2-------------2/0---|
G|-----0/2-----2/0-------|-----0/2-----2/0-------|
B|---------1/0-----------|---------1/0-----------|
e|-----------------------|-----------------------|

                       C                       D
E|-----------------------|-----------------------|
A|---------------------3-|-----------------------|
D|-0/2-------------2/0---|-0/2-------------2/0-0-|
G|-----0/2-----2/0-------|-----0/2-----2/0-------|
B|---------1/0-----------|---------1/0-----------|
e|-----------------------|-----------------------|

                   G
Y la crisis nos golpea
                   Em
convirtiéndonos en cifras,
                      C
lo repite el padre al hijo:
                      D
sin trabajo no hay justicia.
                    G
Mientras otros se divierten
                    Em
engordando en plusvalía,
                     C
ya son cientos y son miles
                     D
los millones que los miran.
                        G
Y el comercio te hace esclavo,
                        Em
te da un precio en su vitrina,
                     C
cuanto vale el ser humano
                    D
si lo vuelven mercancía.
                        G
Vendo un coche compro estaño,
                   Em
vendo Dios y no precisan
                  C
y así creen que pagando
                  D
el corazón lo necesita.

(Hablado)
              G
Y así pasa el tiempo,
                   Em
crece el odio y la fé ya no es la misma,
                     C
para algunos Dios es opio
                        D
y otros quieren que no exista.
                 G
Y se ocupan de supuestos
                     Em
cuando empieza se termina,
                       C
cuando el mundo pide a gritos
                    D
que el amor no se divida.

(Cantado)
                   G
Y la crisis nos golpea,
                 Em
lo repiten las noticias,
                    C
que dirá la voz del pueblo
                     D
cuando no haya más salida.
                       G
Cuando el hambre nos rodee
                           Em
y crezca el odio y la injusticia,
                    C
y los muertos nos reclamen
                       D
por los vivos que se olvidan.

(En esta parte se tapa la guitarra utilizando
transportes a puentes)

                      G
Que dirá el canto mi amigo
                         Em
que nos mueve a hacer poesía,
                      C
que dirá el verso a machete
                  D
y el camino que vigila.
                 G
Cuando llegue el tiempo claro
                      Em
de cortar con la injusticia,
                          C
cuando llegue el tiempo humano
                     D
de exigir lo que nos quitan.
                      C
Cuando demos nuestras manos,
                  D
las verdades, las heridas
                   C
y avancemos paso a canto
                 D
resumiendo las noticias.

                       G                       Em
E|---------------------3-|---------------------0-|
A|-----------------------|-----------------------|
D|-0/2-------------2/0---|-0/2-------------2/0---|
G|-----0/2-----2/0-------|-----0/2-----2/0-------|
B|---------1/0-----------|---------1/0-----------|
e|-----------------------|-----------------------|

                       C                       D
E|-----------------------|-----------------------|
A|---------------------3-|-----------------------|
D|-0/2-------------2/0---|-0/2-------------2/0-0-|
G|-----0/2-----2/0-------|-----0/2-----2/0-------|
B|---------1/0-----------|---------1/0-----------|
e|-----------------------|-----------------------|

Esta canción tiene arreglo de cuerdas durante el rasgueo
en Em (e - segundo traste) y D (e - tercer traste).

            
            
Suggest correction
Creating personal tab
Creating personal tab
You can edit any tab online and save it as your Personal.

You can edit, replace or remove any tab part or add personal notes – all changes will be seen only by you.

Personal tabs can be accessed anytime from any device, even offline.
Learn more »
Give kudos to tab author, rate the tab!
1 2 3 4 5
comments
print report bad tab
guest
Wanna post a correction for this tab? Suggest correction