Oops, an error
Loading. Please wait.
We have Chord Pro version of Sweet Caroline.
It's the closest thing you can get to the original song and it has interactive parts. Check out the tab »
×

Sweet Caroline chords

version 2
version 2

Whole song

Interactive

Video

156,991 views 288 this week
2 commentsread comments
1 2 3 4 5
x 42
add to favorites
×
Save as Personal and add changes to this tab that will be seen only by you. Learn more ›
×
You can save this tab as Personal to edit and correct it or add notes. All changes will be seen only by you. Learn more »
launch autoscroll
font size
0
reset
transpose
0
reset
display chords
guitar tuner
edit
Autoscroll
slow
fast
+/-
esc
set tempo
stop
Strumming
There is no strumming pattern for this song yet. and get +5 IQ
The other versions are mainly right, but I combined some aspects of them, do the 
intro a little diferently and play it in a diferent key.

Capo 2nd.

[Intro]
e|--------------------------------------|
B|--------------------------------------|
G|--------------------------------------|
D|-6-8-9---------6-8-9-8-6--9-8-6-------|
A|--------------------------------------|
E|--------------------------------------|

e|--------------------------------------|
B|--------------------------------------|
G|-5-7-8---------5-7-8-7-5--8-7-5-------|
D|--------------------------------------|
A|--------------------------------------|
E|--------------------------------------|

e|---------------------------------------------------0---0----|
B|---------------------------------------------------0---0----|
G|-9-11-12------9-11-12-11-9--12-11-9---7---5---3----3---3----|
D|-------------------------------------------------------0----|
A|------------------------------------------------------------|
E|------------------------------------------------------------|

G

G
Where it began
C
I can't begin to knowin'
G                            D
But then I know it's growin' strong

G
Was in the spring
C
And spring became the summer
G                              D
Who'd have believed you'd come along


G      C
Hands, touchin' hands
D
Reachin' out
C
Touchin' me
D                   C  D
Touchin' you


G
Sweet Caroline
C                          D             C  D
Good times never seemed so good
G
I've been inclined
C                     D
To believe they never would
C   Bm  Am
But now I


G
Look at the night
C
And it don't seem so lonely
G                       D
We fill it up with only two

G
And when I hurt
C
Hurtin' runs off my shoulders
G                            D
How can I hurt when I'm with you


G     C
Warm, touchin' warm
D
Reachin' out
C
Touchin' me
D               C D
Touchin' you


G
Sweet Caroline
C                          D             C  D
Good times never seemed so good
G
I've been inclined
C                     D
To believe they never would
C   Bm  Am
Oh, no, no

(Repeat Intro)

G
Sweet Caroline
C                          D             C  D
Good times never seemed so good
G
I've been inclined
C                     D       C  D
To believe they never would
G
Sweet Caroline

            
            
Suggest correction
Creating personal tab
Creating personal tab
You can edit any tab online and save it as your Personal.

You can edit, replace or remove any tab part or add personal notes – all changes will be seen only by you.

Personal tabs can be accessed anytime from any device, even offline.
Learn more »
comments
print report bad tab
2 comments total.
0 reply
Frey553 61 Dec 17, 2009 10:05 AM

Capo 4 for is the original key I believe. (for those who are interested) I actually rather like the sound of it this way.

+1 reply
Frey553 61 Dec 17, 2009 02:32 PM

Also, for the chorus I like to play this:

e|---3--------------------------------------|
B|-----------1------1--1--1-----------------|
G|------------------5--4--------------------|
D|-----------2------2--2--2-----------------|
A|---2-------3------3--3--3-----------------|
E|---3--------------------------------------|
Sweet Caroline . . . (etc)

To get the "Bah Bah Baaaah" trumpet part in there.

guest
Wanna post a correction for this tab? Suggest correction