Oops, an error
Loading. Please wait.

Ebony Angel bass

31 views 1 this week
no commentswrite comment
1 2 3 4 5
3 more votes to show rating
add to favorites
×
Save as Personal and add changes to this tab that will be seen only by you. Learn more ›
×
You can save this tab as Personal to edit and correct it or add notes. All changes will be seen only by you. Learn more »
launch autoscroll
font size
0
reset
guitar tuner
edit
Autoscroll
slow
fast
+/-
esc
set tempo
stop
Author
Difficulty
Tabbed by: 6METAL6BASSIST6
E-mail: petergriffinav@gmail.com

Tuning: EADG

G|--------5-------------------------------5-----------------------|
D|----5-------------------------------5---------------------------| x2
A|3-------------------------------3-------------------------------|
E|----------------------------------------------------------------|

0:13

G|--------5-------------------------------5-----------------------|
D|----5-------------------------------5---------------------------|
A|3-------------------------------3-------------------------------|
E|----------------------------------------------------------------|

G|----------------------------------------5-----------------------|
D|--------5---------------------------5---------------------------|
A|----5---------------------------3---------------------------3---|
E|3-----------------------3-------------------------------3-5---5-|

G|--------5-------------------------------5-----------------------|
D|----5-------------------------------5---------------------------|
A|3-------------------------------3-----------------------3-------|
E|------------------------3---------------------------------------|

G|----------------------------------------5-----------------------|
D|--------5---------------------------5---------------------------|
A|----5---------------------------3-----------------------3---2---|
E|3-----------------------3---------------------------------------|

0:36

G|----------------------------------------------------------------|
D|----------------------------------------------------------------|
A|----------------------------------------------------------------|
E|5-----------5---3-----------3---2-----------2---2-----------2---|

G|----------------------------------------------------------------|
D|--------------------------------2-------------------------------|
A|5-----------5-------------------------------5---------------3---|
E|----------------3-----------3---------------------------3-5---5-|

G|--------5-------------------------------5-----------------------|
D|----5-------------------------------5---------------------------|
A|3-------------------------------3-------------------------------|
E|------------------------3-------------------------------3-------|

G|--------------------------------------------------------------------|
D|------------------2-----2-----2-----3-----------3---5-------5---5---|
A|5-----5-----5-------------------------------------------------------|
E|--------------------------------------------------------------------|

0:58

G|--------5-------------------------------5-----------------------|
D|----5---------------5-------5-------5---------------5-------5---|
A|3-------------------------------3-------------------------------|
E|------------------------3-------------------------------3-------|

G|----------------------------------------5-----------------------|
D|----------------5-----------5-------5---------------5-----------|
A|5-----------5-------------------3-----------------------3---2---|
E|----------------------------------------------------------------|

G|----------------------------------------------------------------|
D|----------------------------------------------------------------|
A|----------------------------------------------------------------|
E|5-----------5---3-----------3---2-----------2---2-----------2---|

G|--------------------------------|
D|--------------------------------|
A|5-----------5-------------------|
E|----------------3-----------3---|

G|--------5-------------------------------5-----------------------|
D|----5-------------------------------5---------------------------| x2
A|3-------------------------------3---------------------------3---|
E|------------------------3-------------------------------3-5---5-|

1:29

G|--------5-------------------------------5-----------------------|
D|----5-------------------------------5---------------------------|
A|3-------------------------------3-------------------------------|
E|----------------------------------------------------------------|

G|----------------------------------------5-----------------------|
D|--------5---------------------------5---------------------------|
A|----5---------------------------3---------------------------3---|
E|3-----------------------3-------------------------------3-5---5-|

G|--------5-------------------------------5-----------------------|
D|----5-------------------------------5---------------------------|
A|3-------------------------------3-----------------------3-------|
E|------------------------3---------------------------------------|

G|----------------------------------------5-----------------------|
D|--------5---------------------------5---------------------------|
A|----5---------------------------3-----------------------3---2---|
E|3-----------------------3---------------------------------------|

1:51

G|----------------------------------------------------------------|
D|----------------------------------------------------------------|
A|----------------------------------------------------------------|
E|5-----------5---3-----------3---2-----------2---2-----------2---|

G|----------------------------------------------------------------|
D|--------------------------------2-------------------------------|
A|5-----------5-------------------------------5---------------3---|
E|----------------3-----------3---------------------------3-5---5-|

G|--------5-------------------------------5-----------------------|
D|----5-------------------------------5---------------------------|
A|3-------------------------------3-------------------------------|
E|------------------------3-------------------------------3-------|

G|--------------------------------------------------------------------|
D|------------------2-----2-----2-----3-----------3---5-----------5---|
A|5-----5-----5-------------------------------------------------------|
E|--------------------------------------------------------------------|

2:13

G|--------5-------------------------------5-----------------------|
D|----5---------------5-------5-------5---------------5-------5---|
A|3-------------------------------3-------------------------------|
E|------------------------3-------------------------------3-------|

G|----------------------------------------5-----------------------|
D|----------------5-----------5-------5---------------5-----------|
A|5-----------5-------------------3-----------------------3---2---|
E|----------------------------------------------------------------|

G|----------------------------------------------------------------|
D|----------------------------------------------------------------|
A|----------------------------------------------------------------|
E|5-----------5---3-----------3---2-----------2---2-----------2---|

G|----------------------------------------5-----------------------|
D|------------------------------------5---------------5-----------|
A|5-----------5-------------------3-----------------------3---2---|
E|----------------3-----------3-----------------------------------|

2:35

G|----------------------------------------------------------------|
D|----------------------------------------------------------------|
A|----------------------------------------------------------------|
E|5-----------5---3-----------3---2-----------2---2-----------2---|

G|----------------------------------------------------------------|
D|--------------------------------2-------------------------------|
A|5-----------5-------------------------------5---------------3---|
E|----------------3-----------3---------------------------3-5---5-|

G|--------5-------------------------------5-----------------------|
D|----5-------------------------------5---------------------------|
A|3-------------------------------3-------------------------------|
E|------------------------3-------------------------------3-------|

G|--------------------------------------------------------------------|
D|------------------2-----2-----2-----3-----------3---5-----------5---|
A|5-----5-----5-------------------------------------------------------|
E|--------------------------------------------------------------------|

2:57

G|--------5-------------------------------5-----------------------|
D|----5---------------5-------5-------5---------------5-------5---|
A|3-------------------------------3-------------------------------|
E|------------------------3-------------------------------3-------|

G|----------------------------------------5-----------------------|
D|----------------5-----------5-------5---------------5-------5---|
A|5-----------5-------------------3-------------------------------|
E|--------------------------------------------------------3-------|

G|----------------------------------------------------------------|
D|----------------------------------------------------------------|
A|----------------------------------------------------------------|
E|5-------5-------3-----------3---2-----------2---2-----------2---|

G|--------------------------------|
D|--------------------------------|
A|5-----------5-------------------|
E|----------------3-----------3---|

G|----------------------------5-----------5-----------------------|
D|------------------------------------5-----------------------5---|
A|3-------------------------------3-------------------------------|
E|----------------------------------------------------------------|

3:21

G|--------5-------------------------------5-----------------------|
D|----5-------------------5-----------5---------------------------|
A|3-------------------5-----------3-------------------------------|
E|----------------------------3-----------------------------------|

G|--------5-------------------------------5-----------------------|
D|----5-------------------5-----------5---------------5-------5---|
A|3-------------------------------3-------------------------------|
E|----------------------------3---------------------------3-------|

G|----------------------------------------5-----------------------|
D|----------------5-----------5-------5-----------------------5---|
A|5-----------5-------------------3-------------------------------|
E|----------------------------------------------------------------|

G|--------5-------------------------------5-----------------------|
D|----5---------------5-------5-------5---------------5-------5---|
A|3-------------------------------3-------------------------------|
E|------------------------3-------------------------------3-------|

3:42

G|----------------------------------------5-----------------------|
D|----------------5-----------5-------5---------------5-------5---|
A|5-----------5-------------------3-------------------------------|
E|--------------------------------------------------------3-------|

G|--------5-------------------------------5-----------------------|
D|----5---------------5-------5-------5-----------------------5---|
A|3-----------------------3-------3-------------------------------|
E|----------------------------------------------------------------|

G|----------------------------------------5-----------------------|
D|----------------5-------------------5---------------5-------5---|
A|5-----------5-------------------3-------------------------------|
E|----------------------------3---------------------------3-------|

G|--------5-------------------------------------------------------|
D|----5---------------5-------5-------------------5-----------5---|
A|3-------------------------------5-----------5-------------------|
E|------------------------3---------------------------------------|

G|--------------------------------|
D|----------------5-----------5---|
A|5-----------5-------------------|
E|--------------------------------|

4:04

G|--------5-------------------------------5-----------------------|
D|----5---------------5-------5-------5-----------------------5---|
A|3-------------------------------3-------------------------------|
E|------------------------3---------------------------------------|

G|--------5---------------------------------------------------------------5---|
D|----5-----------------------5-------------------5-----------5-------5-------| fades out here.
A|3-------------------------------5-----------5-------------------3-----------|
E|----------------------------------------------------------------------------|

            
            
Suggest correction
Creating personal tab
Creating personal tab
You can edit any tab online and save it as your Personal.

You can edit, replace or remove any tab part or add personal notes – all changes will be seen only by you.

Personal tabs can be accessed anytime from any device, even offline.
Learn more »
Give kudos to tab author, rate the tab!
1 2 3 4 5
comments
print report bad tab
guest
You may want to rate the tab now too:
select rating
Wanna post a correction for this tab? Suggest correction