Oops, an error
Loading. Please wait.

Hey Hey My My tab

version 2
version 2

Whole song

Interactive

136,286 views 186 this week
11 commentsread comments
1 2 3 4 5
x 40
add to favorites
×
Save as Personal and add changes to this tab that will be seen only by you. Learn more ›
×
You can save this tab as Personal to edit and correct it or add notes. All changes will be seen only by you. Learn more »
launch autoscroll
font size
0
reset
how to read this tab
guitar tuner
backing track
0:00
0:00
edit
Autoscroll
slow
fast
+/-
esc
set tempo
stop
Author
Unregistered
Hey Hey My My TAB

Heavy Crunch.


[Intro]

E|--------------------------------------------------------------------|
B|-----------------------------------------------------------------1--|
G|-----------------------------------------------------------------2--|
D|--------------------------0--------------------------------------3--|
A|-----0--0-----2----3--------------2---0-----------0-----------0-----|
E|----------------------------------------------3---------------------|(x2)


E|----------------------------------------------------|
B|----------------------------------------------------|
G|-------------------------0---2----0-----------------|
D|----------------0---2-------------------2-----------|
A|------3--3---------------------------------------0--|
E|----------------------------------------------------|


[Verse 1]

Am   G      FM7
Hey hey my my,
Am       G                    FM7
Rock and roll will never die,
C                G                      Am           FM7
There's more to the picture than meets the eye,
Am     G    FM7
Hey hey my my.


[Solo 1]

Play the first part of the intro



E|----------12------12------12-------------12---12---12--|
B|----------15b----15b-----15b-----------15b--15b--15b---|
G|-------------------------------------------------------|
D|-------------------------------------------------------|
A|-------------------------------------------------------|
E|-------------------------------------------------------|
X2  b Bend
Play first part of the intro 1ce


[Verse 2]

Am            G                        FM7
Out of the blue and into the black,
Am                 G                    FM7
They give you this but ya' pay for that,
C                       G            Am            FM7
And once you're gone you can't come back,
Am                             G                  FM7
When you're out of the blue and into black.


[Solo 2]

E|----0-------------5------------------------------------------------------------|
B|----1-------------5------------------------------------------------------------|
G|----2-------------------7-----5-----------5----------5--------5----------5-----|
D|----2-------------------------------7----------h7---------h7-------h7-------7--|
A|----0--------------------------------------------------------------------------|
E|-----0-------------------------------------------------------------------------|
                                                                   ^      ^       ^
E|------------------------------------------------------------------------------------|
B|------------------------------------------------------------------------------------|
G|-----------------5----------------7b*-------5---------------5-----------------------|
D|-----7--------------7--7------------------------------7---------------------5~~~~~--|
A|---------------------------------------------------------------------7--------------|
E|------------------------------------------------------------------------------------|

* Bend up one step before played and strike it twice
~Whammy Bar
^ Little Hammer on and pulloffs in between

Play part 2 solo 1 again then


E|--------------------------------------------------|
B|--------------------------------------------------|
G|--------------------------------------------------|
D|--------------0---------------0-------------------|
A|--------3---------3----0--3-----------3--------0--|
E|--------------------------------------------------|


[Verse 3]

Am              G                                       Fmaj7
The king is gone but he's not forgotten (Johnny Rotten  Johnny Rotten),
Am           G                                Fmaj7
Is this the story of Johnny Rotten (Johnny Rotten) Rotten Johnny (Rotten Johnny ooo),
C                 G           Am         Fmaj7
It's better to burn out than to fade away,
Am             G                                     Fmaj7
The king is gone but he's not forgotten.


[Solo 3]


E|-------------------------------------------------------------------------------------------------|
B|-------------5---8-------------------------------------------------------------------------------|
G|-------------------------5--*---7----------------------------------------------------------------|
D|----------------------------------------5--*---7-------------------------------------------------|
A|-----------------------------------------------------5----*----7---------------------------------|
E|------------------------------------------------------------------------7---------5~~~~~~~~~~~~--|
* Random Hammerons and Pull offs                                        Choke
~Whammy Bar


             *
E|-----------------------------------------15~~~~~~~~~~~~~~~~--|
B|-12------15b-----------------17------------------------------|
G|-------------------------------------------------------------|
D|-------------------------------------------------------------|
A|-------------------------------------------------------------|
E|-------------------------------------------------------------|
*Strike five times and bend before each time

E|----12---12---12-----12---12-----12-------------15--15----15---------17~~~~~~~~~--|
B|----15b--15b-15b----15b--15b---15b----------17b--17b--17b-------------------------|
G|----------------------------------------------------------------------------------|
D|----------------------------------------------------------------------------------|
A|----------------------------------------------------------------------------------|
E|----------------------------------------------------------------------------------|

B Bend

E|-----------------------------------------------|
B|-----------------------------------------------|
G|-----------------------------------------------|
D|-----------------------------------------------|
A|------3--0---3---0---------3----0~~~~~~~~~~~~--|
E|-------------------------3---------------------|


[Verse]

Am   G        FM7
Hey my,
Am         G                       FM7
Rock and roll will never die,
C                             G          Am                 FM7
There's more to the picture than meets the eye,
Am   G           FM7
Hey hey my my.


[Solo 4]

E|-------------------------------------------------------|
B|-------------5-------8-----------5----8--5----------5--|
G|----------------------------7--------------------7-----|
D|-------------------------------------------------------|
A|---0---------------------------------------------------|
E|-------------------------------------------------------|
        |________________________________________________|
                Octave effect


E|---------------------------17------------15----15----------------------|
B|-------------------17--------------15-----------------17~~~~~~~~~~~~~--|
G|-----14----------------------------------------------------------------|
D|-----------------------------------------------------------------------|
A|-----------------------------------------------------------------------|
E|-----------------------------------------------------------------------|

E|--12----12----12-------12---12----12----12----12---12-------12----12---12--|
B|--15b--15b---15b-----15b--15b--15b---15b---15b--15b-----15b--15b--15b------|
G|---------------------------------------------------------------------------|
D|---------------------------------------------------------------------------|
A|---------------------------------------------------------------------------|
E|---------------------------------------------------------------------------|
                                  |__________________________________________|
                        Octave effect

E|------------------------------------------------------------------------------(0)--|
B|------------------------------------------------------------------------------(1)--|
G|------------------------------------------------------------------------------(2)--|
D|---------------------0~~~~~~----------------------------------------------(2)------|
A|---0------0--2-3-------------------------2--0-----------------------------(0)------|
E|---------------------------------------------------3~~~~~~----------------(0)------|

* Play the above riff twice as slow
( ) Change your fingers to an A minor chord and whammy it hitting your forearm against the strings

E|-----0--------------------------------------------------------15-----12-------15----12---------|
B|-----1--------------------------------------------------------------------12---------------12--|
G|-----2---------------5---4--------16~~~~~~~~~--------------------------------------------------|
D|-----2-----------------------------------------------------------------------------------------|
A|-----0-----------------------------------------------------------------------------------------|
E|-----0-----------------------------------------------------------------------------------------|
                         *
E|-----15---12--------0~~~~~~------|
B|----------------------1~~~~~~----|
G|----------------------2~~~~~~----|
D|----------------------2~~~~~~----|
A|----------------------0~~~~~~~---|
E|-----------------------0~~~~~~~--|

* First time whammy Second time strike and mute

Notes:
During solos Rythum guitar plays intro riff
During verses Rythum guitar plays intro riff



************************************

| (n)  Ghost note
| h    Hammer-on
| b    Bend
| ~    Vibrato

************************************

            
            
Suggest correction
Creating personal tab
Creating personal tab
You can edit any tab online and save it as your Personal.

You can edit, replace or remove any tab part or add personal notes – all changes will be seen only by you.

Personal tabs can be accessed anytime from any device, even offline.
Learn more »
comments
print report bad tab
11 comments total. Showing first comments. show 1 bad comment
+1 reply
karateguy29 80 May 05, 2006 01:29 PM

Good tab, sounded right to me.

0 reply
EADGBe_6s 31 Jul 27, 2007 11:08 AM

its too... short i think, chords are right tho

guest
Wanna post a correction for this tab? Suggest correction