Oops, an error
Loading. Please wait.

Tu Nombre tab

by Nek
132 views 1 this week
no commentswrite comment
1 2 3 4 5
3 more votes to show rating
add to favorites
×
Save as Personal and add changes to this tab that will be seen only by you. Learn more ›
×
You can save this tab as Personal to edit and correct it or add notes. All changes will be seen only by you. Learn more »
launch autoscroll
font size
0
reset
how to read this tab
guitar tuner
edit
Autoscroll
slow
fast
+/-
esc
set tempo
stop
Algunas modificaciones

"Que tiempos aquellos..."


  [Intro]

  [Guitarra de acompañamiento]
  [ D             Bm              G      Em7/D   ]

  [Bajo]
D-|----------------------------------------------|-
A-|-5-5-5--5-5-5---------------------------------|-
E-|---------------7-7-7--7-7-7---3-3-3---5-5-5---|-
   [Guitarra 2]
E-|----------------------------------------------|-
B-|----------------------------------------3~~---|-
G-|--------------------------------------0-------|-
D-|-----------4------------------------2---------|-
A-|--5~~--5-7---------------4--5-----------------|-
E-|---------------7~~----7-------3---------------|-


  Me despiertan tus besos al amanecer
  [Bajo]
D-|----------------------------------------------|-
A-|-5-5-5--5-5-5---------------------------------|-
E-|------------------------7-7-7--7-7-7----------|-
D-|----------------------------------------------|-
  [Guitarra 2]
D-|----------------------------------------------|-
A-|----------------------------------------4-5---|-
E-|--------------------------------------7-----3-|-

G                 A                  D
  si te vas mis mañanas se cubren de hiel
  [Bajo]
D-|----------------------------------------------|-
A-|-----------------------------5-5-5--5-5-5-----|-
E-|-3-3-3------5-5-5-----------------------------|-
  [Guitarra 2]
E-|---------------------------------------14-----|-
B-|-------------------------------------15-------|-
G-|-----------------------------------14---------|-
D-|----------------------------------------------|-
A-|------------------------------------------10-9|-
E-|----------------------------------------------|-

D                                             Bm
  solo hay algo mejor que pararme a pensar en ti
  [Bajo]
D-|----------------------------------------------|-
A-|-5-5-5--5-5-5---------------------------------|-
E-|------------------------7-7-7--7-7-7----------|-
  [Guitarra 2]
D-|----------------------------------------------|-
A-|----------------------------------------4-5---|-
E-|--------------------------------------7-----3-|-


G               A                   D
  recorrerte desnuda de principio a fin
  [Bajo]
D-|----------------------------------------------|-
A-|-----------------------------5-5-5--5-5-5-----|-
E-|-3-3-3----5-5-5-------------------------------|-
  [Guitarra 2]
E-|----------------------------------------------|-
B-|--------------------------------------5-------|-
G-|----------------------------------------7-----|-
D-|------------------------------------------7---|-

Am7                                            D
   No hay palabras que exliquen como el corazón
  [Guitarra 2]
E-|------8------------7-------------5------------|-
B-|----5------------5-------------5--------------|-
G-|--5------------5-------------5----------------|-

                   Dsus               Am7
  [cuanta falta me hace tú risa mi amor]
  [Guitarra 2]
E-|--------5-------------------------------------|-
B-|------5----------8--------7-------------------|-
G-|----5----------5--------5---------------------|-
D-|------------7--------7------------------------|-

                                  D
  sin pedirme tú nada, casi sin saber
  [Guitarra 2]
E-|-----8-----------7--------5-------------------|-
B-|---5----------5---------5---------------------|-
G-|-5---------5----------5-----------------------|-

                     Dsus
  [me das todo en un beso sin miedo a perder]
  [Guitarra 2]
E-|-----5----------------------------------------|-
B-|---5---------------8----7---------------------|-
G-|-5---------------5----5-----------------------|-
D-|---------------7----7-------------------------|-

C
  me olvidé del ayer en tú cuerpo
  [Guitarra 2]
E-|----------------------------------------------|-
B-|-----8---------5------------------------------|-
G-|---7---------7--------------------------------|-
D-|-8---------8----------------------------------|-
A-|-------------------------------4-5------------|-
E-|-----------------------------7-----3----------|-

G
  tú cintura es la curva de un sueño
  [Guitarra 2]
E-|-----3-------2--------------------------------|-
B-|---3-------3--------3-5-----------------------|-
G-|-4-------4--------4---------------------------|-
D-|----------------------------------------------|-
A-|-------------------------------4-5------------|-
E-|-----------------------------7-----3----------|-

Gm                                    A
  donde todas las noches la luna me encontrara...


[Coro]

D      Dsus     D1 D  Dsus  D  Dsus
 No se como hay se xo pe    ro al   final
D       Dsus D1  D                G
en mi cora   zón esta grabado tú nombre
    Em7/D
tan grande...


D            Dsus   D1  D  Dsus
 Pasa el tiempo   y voy queriendote más
D            Dsus  D1   D    Dsus     G
en toda esta pa    sión se esconde tú nombre...
   A
tú nombre...uhhh


  [Guitarra de acompañamiento]
  [ D, Dsus, D1, D, Dsus, D, Dsus ]
  [Guitarra 2]
D-|-------------------------------------4-------|-
A-|--5~~--------------------------5-7-----------|-
E-|-----------------------------------------7~~-|-

  [Guitarra de acompañamiento]
  [ D, Dsus, D1, D, Dsus, D, Dsus ] uhh oh...
  [Guitarra 2]
D-|---------------------------------------------|-
A-|----------------------------------4--5-------|-
E-|--------------------------------7------3-----|-

  [Guitarra de acompañamiento]
  [ D, Dsus, D1, D, Dsus, D, Dsus ]


Am7                                      D
   Yo no intento cambiar ni una de tus ideas
  [Guitarra 2]
E-|------8------------7---------5----------------|-
B-|----5------------5--------5-------------------|-
G-|--5------------5-------5----------------------|-

                 Dsus                        Am7
  [las respeto y acepto por muy locas que sean]
  [Guitarra 2]
E-|--------5-------------------------------------|-
B-|------5----------8--------7-------------------|-
G-|----5----------5--------5---------------------|-
D-|------------7--------7------------------------|-

                                   D
  eres tan diferente a lo que conoci
  [Guitarra 2]
E-|------8------7---------5----------------------|-
B-|----5------5--------5-------------------------|-
G-|--5------5-------5----------------------------|-

                      Dsus
  [todo el mundo esta solo y yo te tengo a ti]
  [Guitarra 2]
E-|-----5----------------------------------------|-
B-|---5----------8--------7----------------------|-
G-|-5----------5--------5------------------------|-
D-|----------7--------7--------------------------|-

C
   en tus labios yo pierdo los dias
Gm                A
  en tú cuerpo la razón...¡¿por qué?!


[Coro]

D      Dsus     D1 D  Dsus  D  Dsus
 No se como hay se xo pe    ro al   final
D       Dsus D1  D                G
en mi cora   zón esta grabado tú nombre
    Em7/D
tan grande...


D      Dsus D1  D Dsus  D  Dsus
 Cubro cada mu ro de es ta ciu  dad
D         Dsus D1  D Dsus D      G
con graffitis  que repi   ten tú nombre
   Em7/D        A
tú nombre...tan grande...


   [Solo]
   [Acompañando al solo]
    D, C, G, A x 3

E-|---------------------0----------------------0--|-
B-|-7-----5-----3-----2---2--7-----5----3----2--2-|-
G-|-7---5-----4-----2------2-7---5----4----2-----2|-
D-|-7-5-----5-----2----------7-5----5----2--------|-
A-|-----------------------------------------------|-
E-|-----------------------------------------------|-


E-|---------------------0--------0-------0--------|-
B-|-7-----5-----3-----2---2----2---2---2---2------|-
G-|-7---5-----4-----2------2---------2-------2-ETC|-
D-|-7-5-----5-----2-------------------------------|-
A-|-----------------------------------------------|-
E-|-----------------------------------------------|-

D     Dsus D1 D Dsus
Ohh...oh oh oh
Bm                   G        Em7/D
Ohh...uh oh oh oh uh oh...tan grande


[Coro]

D      Dsus     D1 D  Dsus  D  Dsus
 No se como hay se xo pe    ro al   final
D       Dsus D1  D                G
en mi cora   zón esta grabado tú nombre
    Em7/D
tan grande...Ohhh!!!


D            Dsus   D1  D  Dsus
 Pasa el tiempo   y voy queriendote más
D            Dsus  D1   D    Dsus     G
en toda esta pa    sión se esconde tú nombre
   A
tú nombre...y...yeah


D      Dsus     D1 D  Dsus  D  Dsus
 No se como hay se xo pe    ro al   final
D       Dsus D1  D                G
en mi cora   zón esta grabado tú nombre
    Em7/D
tan grande...Ohhh!!!


Acordes: 654321

D        000232
Dsus     000230
D1       000233
Em7/D    022030
G        344533
A        002220
A7       002020
Am7      002010
Bm       224432

[Dudas,quejas,sugerencias y comentarios a mi correo]

            
            
Suggest correction
Creating personal tab
Creating personal tab
You can edit any tab online and save it as your Personal.

You can edit, replace or remove any tab part or add personal notes – all changes will be seen only by you.

Personal tabs can be accessed anytime from any device, even offline.
Learn more »
Give kudos to tab author, rate the tab!
1 2 3 4 5
comments
print report bad tab
guest
Wanna post a correction for this tab? Suggest correction