Oops, an error
Loading. Please wait.

Nique Les Clones tab

by Nekfeu
3,964 views 33 this week
3 commentsread comments
1 2 3 4 5
x 18
add to favorites
×
Save as Personal and add changes to this tab that will be seen only by you. Learn more ›
×
You can save this tab as Personal to edit and correct it or add notes. All changes will be seen only by you. Learn more »
launch autoscroll
font size
0
reset
how to read this tab
guitar tuner
edit
Autoscroll
slow
fast
+/-
esc
set tempo
stop
-------------------------------------------------------------------------------
                             Nique les clones - Nekfeu
-------------------------------------------------------------------------------
Tabbed by: Paul "Frizouille" Bisset
E-mail: paul.bisset.1337@gmail.com

Salut !
● J'étais un peu déçu de ne pas voir cette tablature, alors j'ai décidé de la transcrire :)
● En écoutant la musique, je me suis rendu compte qu'un coup c'était dans les aigus, un coup
  dans les graves, alors changez entre ligne Haute et Basse selon ce que vous entendez
● J'ai mis avec et sans Capo. C'est plus pratique avec (surtout pour la ligne de basse), mais 
  si vous n'en avez pas c'est quand même possible
● Pour le refrain, on entend une sorte de "liens" propre au refrain, je l'ai retranscrit. Dans
  la mesure du possible, jouer la ligne haute et les liens (comme je l'ai nommé) en même temps
  donc avec 2 guitares
● Si vous trouvez que ça correspond, mettez 5 étoiles s'il vous plait, ça fait toujours plaisir


Tuning: Standard (EADGBe)

*********** Sans Capo ***********
La ligne haute :
e|-------------10----------------10------------------------------------------|
B|-------10----------10-------11----11------10-------------------------------|
G|----10----10----10----10-12-------------9----9-----------------------------|
D|-12----------------------------------10------------------------------------|
A|---------------------------------------------------------------------------|
E|---------------------------------------------------------------------------|

La ligne basse : 
e|---------------------------------------------------------------------------|
B|---------------------------------------------------------------------------|
G|----------7------------7---------------------------------------------------|
D|------7-------7------8---8-----7-------------------------------------------|
A|----8---8---8---8-10---------7---7-----------------------------------------|
E|-10------------------------8-----------------------------------------------|

Refrain (Liens)
e|-10----10------8-8/12---10----------------8--------------------------------|
B|-----------------------------10--------8-----------------------------------|
G|---------------------------------------------------------------------------|
D|---------------------------------------------------------------------------|
A|---------------------------------------------------------------------------|
E|---------------------------------------------------------------------------|



*********** Capo 7 ***********
La ligne haute :
e|---------3-----------3-----------------------------------------------------|
B|-----3-------3-----4---4-----3---------------------------------------------|
G|---3---3---3---3-5---------2---2-------------------------------------------|
D|-5-----------------------3-------------------------------------------------|
A|---------------------------------------------------------------------------|
E|---------------------------------------------------------------------------|

La ligne basse :
e|---------------------------------------------------------------------------|
B|---------------------------------------------------------------------------|
G|---------0-----------0-----------------------------------------------------|
D|-----0-------0-----1---1-----0---------------------------------------------|
A|---1---1---1---1-3---------0---0-------------------------------------------|
E|-3-----------------------1-------------------------------------------------|

Refrain (Liens)
e|-3----3------1-1/5---3---------------1-------------------------------------|
B|-------------------------3--------1----------------------------------------|
G|---------------------------------------------------------------------------|
D|---------------------------------------------------------------------------|
A|---------------------------------------------------------------------------|
E|---------------------------------------------------------------------------|

************************************

| /   slide up

************************************

Merci !

            
            
Suggest correction
Creating personal tab
Creating personal tab
You can edit any tab online and save it as your Personal.

You can edit, replace or remove any tab part or add personal notes – all changes will be seen only by you.

Personal tabs can be accessed anytime from any device, even offline.
Learn more »
comments
print report bad tab
3 comments total.
0 reply
DeathMelancholy 73 Mar 04, 2016 09:57 AM

Ça correspond, du coup j'ai mis cinq étoiles ;)

0 reply
Frizouille 204 Mar 08, 2016 10:10 PM

Merci beaucoup :)

0 reply
DeathMelancholy 73 Mar 09, 2016 08:20 AM

C'est naturel :)

guest
You may want to rate the tab now too:
select rating
Wanna post a correction for this tab? Suggest correction