Oops, an error
Loading. Please wait.

Life On Mars bass

186 views 1 this week
no commentswrite comment
1 2 3 4 5
3 more votes to show rating
add to favorites
×
Save as Personal and add changes to this tab that will be seen only by you. Learn more ›
×
You can save this tab as Personal to edit and correct it or add notes. All changes will be seen only by you. Learn more »
launch autoscroll
font size
0
reset
guitar tuner
edit
Autoscroll
slow
fast
+/-
esc
set tempo
stop
Author
Difficulty
--------------------------------------------------------------------------------------------------
                             Nerf Herder - Life On Mars
--------------------------------------------------------------------------------------------------

Tuning: Standard

Intro

G|------------------------------------------------------------------------------------------------|
D|------------------------------------------------------------------------3-3-3-3-3-3-3-3-3-3-2-0-|
A|------------------------------------------------------------------------------------------------|
E|------------------------------------------------------------------------------------------------|

G|------------------------------------------------------------------------------------------------|
D|------------------------------------------------------------------------3-3-3-3-3-3-3-3-3-3-2-0-|
A|3-3-3-3-3-3-3-3-3-3-3-3-2-2-2-2-2-2-2-2-2-2-2-2-0-0-0-0-0-0-0-0-0-0-0-0-------------------------|
E|------------------------------------------------------------------------------------------------|

Verse

G|------------------------------------------------------------------------------------------------|
D|------------------------------------------------------------------------------------------------|
A|3-3-3-3-3-3-3-3-3-3-3-3-2-2-2-2-2-2-2-2-2-2-2-2-0-0-0-0-0-0-0-0-0-0-0-0-----------------------2-|
E|------------------------------------------------------------------------1-1-1-1-1-1-1-1-1-1-3---|

G|------------------------------------------------------------------------------------------------|
D|------------------------------------------------------------------------3-3-3-3-3-3-3-3-3-3-2-0-|
A|3-3-3-3-3-3-3-3-3-3-3-3-2-2-2-2-2-2-2-2-2-2-2-2-0-0-0-0-0-0-0-0-0-0-0-0-------------------------|
E|------------------------------------------------------------------------------------------------|

G|------------------------------------------------------------------------------------------------|
D|------------------------------------------------------------------------------------3-2-0-3-2-0-|
A|3-3-3-3-3-3-3-3-3-3-3-3-2-2-2-2-2-2-2-2-2-2-2-2-0-0-0-0-0-0-0-0-0-0-0-0-------------------------|
E|------------------------------------------------------------------------1-1-1-1-1-1-------------|

G|------------------------------------------------------------------------------------------------|
D|------------------------------------------------------------------------------------------------|
A|3-3-3-3-3-3-3-3-3-3-3-3-------------------------------------------------------------------------|
E|------------------------3-3-3-3-3-3-3-3-3-3-3-3-1-1-1-1-1-1-1-1-1-1-1-1-3-3-3-3-3-3-3-3-3-3-3-3-|

Chorus

G|-------------------------------------------------------------------------------------------------|
D|------------------------2-2-2-2-2-2-/6-6-6-6-6-6-------------------------------------------------|
A|0-0-0-0-0-0-3-3-3-3-3-3--------------------------5-5-5-5-5-5-----------------------------------0-|
E|-------------------------------------------------------------7-7-7-7-7-7-8-8-8-8-8-8-8-8-8-8-7---|

G|-----------------------------------------------------------------------------------------------|
D|------------------------------------3-3-3-3-2-0------------------------------------3-3-3-3-2-0-|
A|3-3-3-3-3-3-------------3-3-3-3-3-3-------------3-3-3-3-3-3------------3-3-3-3-3-3-------------|
E|------------3-3-3-3-3-3-------------------------------------3-3-3-3-3-3------------------------|

G|---------------------------------------------------------------------------------|
D|---------------------------------------------------------------------------------|
A|3-3-3-3-3-3-------------3--3--3----------------------------------------------0-2-|
E|------------3-3-3-3-3-3----------1-1-1-1-1-1-1-1-1-1-1-1-3-3-3-3-3-3-3-3-3-3-----|

Verse

G|------------------------------------------------------------------------------------------------|
D|------------------------------------------------------------------------------------------------|
A|3-3-3-3-3-3-3-3-3-3-3-3-2-2-2-2-2-2-2-2-2-2-2-2-0-0-0-0-0-0-0-0-0-0-0-0-----------------------2-|
E|------------------------------------------------------------------------1-1-1-1-1-1-1-1-1-1-3---|

G|------------------------------------------------------------------------------------------------|
D|------------------------------------------------------------------------3-3-3-3-3-3-3-3-3-3-2-0-|
A|3-3-3-3-3-3-3-3-3-3-3-3-2-2-2-2-2-2-2-2-2-2-2-2-0-0-0-0-0-0-0-0-0-0-0-0-------------------------|
E|------------------------------------------------------------------------------------------------|

G|------------------------------------------------------------------------------------------------|
D|------------------------------------------------------------------------------------3-2-0-3-2-0-|
A|3-3-3-3-3-3-3-3-3-3-3-3-2-2-2-2-2-2-2-2-2-2-2-2-0-0-0-0-0-0-0-0-0-0-0-0-------------------------|
E|------------------------------------------------------------------------1-1-1-1-1-1-------------|

G|------------------------------------------------------------------------------------------------|
D|------------------------------------------------------------------------------------------------|
A|3-3-3-3-3-3-3-3-3-3-3-3-------------------------------------------------------------------------|
E|------------------------3-3-3-3-3-3-3-3-3-3-3-3-1-1-1-1-1-1-1-1-1-1-1-1-3-3-3-3-3-3-3-3-3-3-3-3-|

Chorus

G|-------------------------------------------------------------------------------------------------|
D|------------------------2-2-2-2-2-2-/6-6-6-6-6-6-------------------------------------7-7-7-7-0---|
A|0-0-0-0-0-0-3-3-3-3-3-3--------------------------5-5-5-5-5-5-----------------------------------3-|
E|-------------------------------------------------------------7-7-7-7-7-7-8-8-8-8-8-8-------------|

G|-----------------------------------------------------------------------------------------------|
D|------------------------------------3-3-3-3-2-0------------------------------------3-3-3-3-2-0-|
A|3-3-3-3-3-3-------------3-3-3-3-3-3-------------3-3-3-3-3-3------------3-3-3-3-3-3-------------|
E|------------3-3-3-3-3-3-------------------------------------3-3-3-3-3-3------------------------|

G|---------------------------------------------------------------------------------|
D|---------------------------------------------------------------------------------|
A|3-3-3-3-3-3-------------3--3--3----------------------------------------------0-2-|
E|------------3-3-3-3-3-3----------1-1-1-1-1-1-1-1-1-1-1-1-3-3-3-3-3-3-3-3-3-3-----|

Bridge

G|-------------------------------------------------------------------------------------------------|
D|------------------------2-2-2-2-2-2-/6-6-6-6-6-6-------------------------------------------------|
A|0-0-0-0-0-0-3-3-3-3-3-3--------------------------5-5-5-5-5-5-------------------------0-0-0-0-3-2-|
E|-------------------------------------------------------------7-7-7-7-7-7-8-8-8-8-8-8-------------|

G|-------------------------------------------------------------------------------------------------|
D|------------------------2-2-2-2-2-2-/6-6-6-6-6-6---------7---------------------------7-7-7-7-0---|
A|0-0-0-0-0-0-3-3-3-3-3-3--------------------------5-5-5-5---5-----------------------------------3-|
E|-------------------------------------------------------------7-7-7-7-5-7-8-8-8-8-8-8-------------|

G|-------------------------------------------------------------------------------------------------|
D|------------------------2-2-2-2-2-2-/6-6-6-6-6-6---------7---------------------------7-5-3-7-5-3-|
A|0-0-0-0-0-0-3-3-3-3-3-3--------------------------5-5-5-5---5-------------------------------------|
E|-------------------------------------------------------------7-7-7-7-5-7-8-8-8-8-8-8-------------|

Chorus

G|-------------------------------------------------------------------------------------------------------|
D|------------------------2-2-2-2-2-2-/6-6-6-6-6-6-------------------------10-10-10-10-10-10-7-5-3-7-5-0-|
A|0-0-0-0-0-0-3-3-3-3-3-3--------------------------5-5-5-5-5-5-------------------------------------------|
E|-------------------------------------------------------------7-7-7-7-7-7-------------------------------|

G|-----------------------------------------------------------------------------------------------|
D|------------------------------------3-3-3-3-2-0------------------------------------3-3-3-3-2-0-|
A|3-3-3-3-3-3-------------3-3-3-3-3-3-------------3-3-3-3-3-3------------3-3-3-3-3-3-------------|
E|------------3-3-3-3-3-3-------------------------------------3-3-3-3-3-3------------------------|

G|---------------------------------|
D|---------------------------------|
A|3-3-3-3-3-3-------------3--3--3--|
E|------------3-3-3-3-3-3----------|

Outro

G|------------------------------------------------------------------------------------------------|
D|------------------------------------5-5-5-5-4-2-0-0-0-0-0-0-------------------------5-5-5-5-4-2-|
A|5-5-5-5-5-5-0-0-0-0-0-0-5-5-5-5-5-5-------------------------0-0-0-0-0-0-5-5-5-5-5-5-------------|
E|------------------------------------------------------------------------------------------------|

G|------------------------------------------------------------------------------------------------|
D|0-0-0-0-0-0-0-0-0-0-0-0-------------------------------------------------------------------5-4-2-|
A|------------------------4-4-4-4-4-4-4-4-4-4-4-4-2-2-2-2-2-2-2-2-2-2-2-2-------------------------|
E|------------------------------------------------------------------------3-3-3-3-3-3-3-3-3-------|

G|---------------------------------------|
D|0~~------------------------------------|
A|---------------------------------------|
E|---------------------------------------|


| /  slide up
=========================================================================================================

            
            
Suggest correction
Creating personal tab
Creating personal tab
You can edit any tab online and save it as your Personal.

You can edit, replace or remove any tab part or add personal notes – all changes will be seen only by you.

Personal tabs can be accessed anytime from any device, even offline.
Learn more »
Give kudos to tab author, rate the tab!
1 2 3 4 5
comments
print report bad tab
guest
You may want to rate the tab now too:
select rating
Wanna post a correction for this tab? Suggest correction