Oops, an error
Loading. Please wait.

Simple Enough tab

21,328 views 1 this week
5 commentsread comments
1 2 3 4 5
x 4
add to favorites
×
Save as Personal and add changes to this tab that will be seen only by you. Learn more ›
×
You can save this tab as Personal to edit and correct it or add notes. All changes will be seen only by you. Learn more »
launch autoscroll
font size
0
reset
how to read this tab
guitar tuner
edit
Autoscroll
slow
fast
+/-
esc
set tempo
stop
Simple Enough By Never Shout Never
The Summer EP
Standard Tuning

Tabbing on this video from nevershoutnever  http://www.youtube.com/watch?v=guN9A2bK74g


Intro
    C  F   C  F   C  F   C
e|--0--1---0--1---0--1---0-------|
B|---1--1-1-1--1-1-1--1-1--------|
G|----0--2---0--2---0--2---------|
D|-------------------------------|
A|--3------3------3------3-------|
E|-----1------1------1-----------|


Verse:

    C  F   C  F   C  F   C
e|--0--1---0--1---0--1---0-------|
B|---1--1-1-1--1-1-1--1-1--------|
G|----0--2---0--2---0--2---------|
D|-------------------------------|
A|--3------3------3------3-------|
E|-----1------1------1-----------|
If I was a sailor
I'd sail the seven seas
To tell you baby I dont want you to leave

    C  F   C  F   C  F   C
e|--0--1---0--1---0--1---0-------|
B|---1--1-1-1--1-1-1--1-1--------|
G|----0--2---0--2---0--2---------|
D|-------------------------------|
A|--3------3------3------3-------|
E|-----1------1------1-----------|
You see this world is such a sad place
And without your pretty face
Im sure its gonna wind up much worse

e|--------------|
B|--------------|
G|--------------|
D|--------------|
A|--------------|
E|-----12/3-----|


Pre-chorus:

    G                                   C
And I know that you'll see someday that I cant live without you
      F                             G
And I know what I say is true cause i'm still stuck on you girl


Chorus:

C                                        F
Im in love from the first time I laid my eyes on you
                 C
A-shoo-do-do-do-do-do
                     F      G
Theres nothing I can do
    C                                        F
And Im in love from the first time I laid my lips on yours
                         C
Now youre walking out my door
                         F     G
And theres nothing I can do


Verse 2:

    C  F   C  F   C  F   C
e|--0--1---0--1---0--1---0-------|
B|---1--1-1-1--1-1-1--1-1--------|
G|----0--2---0--2---0--2---------|
D|-------------------------------|
A|--3------3------3------3-------|
E|-----1------1------1-----------|  
And if I could explore the world
Id bring you along
Wed go from New York to Timbuktu

    C  F   C  F   C  F   C
e|--0--1---0--1---0--1---0-------|
B|---1--1-1-1--1-1-1--1-1--------|
G|----0--2---0--2---0--2---------|
D|-------------------------------|
A|--3------3------3------3-------|
E|-----1------1------1-----------|
But truly I am set right here at Dennys
Drinking coffee and sharing a cigarette

e|--------------|
B|--------------|
G|--------------|
D|--------------|
A|--------------|
E|-----12/3-----|


Pre-chorus:

    G                                   C
And I know that you'll see someday that I cant live without you
      F                             G
And I know what I say is true cause i'm still stuck on you girl


Chorus:

C                                        F
Im in love from the first time I laid my eyes on you
                 C
A-shoo-do-do-do-do-do
                     F      G
Theres nothing I can do
    C                                       F
And Im in love from the first time I laid my lips on yours
                         C
Now youre walking out my door
                         F     G
And theres nothing I can do
                 
                 C
I'm in love with you

            
            
Suggest correction
Creating personal tab
Creating personal tab
You can edit any tab online and save it as your Personal.

You can edit, replace or remove any tab part or add personal notes – all changes will be seen only by you.

Personal tabs can be accessed anytime from any device, even offline.
Learn more »
comments
print report bad tab
5 comments total. Showing first comments.
0 reply
Kaydi 10 Jul 03, 2009 12:38 PM

nice! that's pretty much head on! great job

0 reply
guitartaber93 209 Jul 09, 2009 01:11 PM

Istead of this:

C F C F C F C
e|--0--1---0--1---0--1---0-------|
B|---1--1-1-1--1-1-1--1-1--------|
G|----0--2---0--2---0--2---------|
D|-------------------------------|
A|--3--3---3--3---3--3---3-------|
E|-------------------------------|

It could be this:

C F C F C F C
e|--0--1---0--1---0--1---0-------|
B|---1--1-1-1--1-1-1--1-1--------|
G|----0--2---0--2---0--2---------|
D|-------------------------------|
A|--3------3------3------3-------|
E|-----1------1------1-----------|

Not sure...that's how i play it now haha sorta just happened but whateve.

-1 reply
Chaz_Star123 10 Oct 28, 2009 02:16 AM

Why say it's a tab when there is chords?! For god sake!

guest
You may want to rate the tab now too:
select rating
Wanna post a correction for this tab? Suggest correction