Oops, an error
Loading. Please wait.

Always tab

1,482 views 1 this week
no commentswrite comment
1 2 3 4 5
3 more votes to show rating
add to favorites
×
Save as Personal and add changes to this tab that will be seen only by you. Learn more ›
×
You can save this tab as Personal to edit and correct it or add notes. All changes will be seen only by you. Learn more »
launch autoscroll
font size
0
reset
how to read this tab
guitar tuner
edit
Autoscroll
slow
fast
+/-
esc
set tempo
stop
Neverending White Lights - Always

get ready for the sloppiest tab ever.
nobody tabbed this song yet (to my knowledge) so here's my stab at it.

transcribed by: Matt L.
on: january 29th, 2008

Intro (guitar joins piano after a bit)
      
e--10----10-----8-----8-----10----10----8-----8----------------------------|
B------8-----8-----8-----8-----8-----8-----8-----8-------------------------|
G------------(maybe a 9 in here somewhere or open)-------------------------|
D--------------------------------------------------------------------------|
A--------------------------------------------------------------------------|
E--------------------------------------------------------------------------|
       
e---8-----8-----7-----7-----8-----8-----7-----7----------------------------|
B------8-----8-----8-----8-----8-----8-----8-----8-------------------------|
G--------------------------------------------------------------------------|
D---------(or it could be 10 7 10 7, 8 7 8 7 on the high e instead)--------|
A--------------------------------------------------------------------------|
E--------------------------------------------------------------------------|

guitar 2 joins in w/ faint distorted power chords

e---3-----------3-----------3------------3--------(maybe alternating--x---)
B---3-----------5-----------3------------3--------(-------------------5---)
G---5-----------5-----------5------------5--------(-------------------5---)
D---5-----------5-----------5------------5--------(or just the first--5---)
A---3-----------3-----------3------------3--------(chord--------------3---)
E---x-----------x-----------x------------x--------(-------------------x---)

e---x-----------x--(-------------------------------x-)---------------------|
B---1-----------1--(-------------------------------3-)---------------------|
G---2-----------2--(-------------------------------2-)---------------------|
D---2-----------2--(-OR alternate between that and 2-)---------------------|
A---0-----------0--(-------------------------------0-)---------------------|
E---x-----------x--(-------------------------------x-)---------------------|

then guitar 1 plays

e--------------------------------------------------------------------------|
B---5--5--5--5--5--5--5--5--5--3--3--3--3--1--1--1--1--0--0--0--0----------|
G---------------(maybe the G is played open)-------------------------------|
D--------------------------------------------------------------------------|
A--------------------------------------------------------------------------|
E--------------------------------------------------------------------------|

or with chords using one guitar

e---0-0-0-0--0-0-0-0--0-0-0-0--0-0-0-0--0-0-0-0--0-0-0-0--0-0-0-0--0-0-0-0-|
B---x-x-x-x--x-x-x-x--3-3-3-3--3-3-3-3--1-1-1-1--1-1-1-1--0-0-0-0--0-0-0-0-|
G---0-0-0-0--0-0-0-0--0-0-0-0--0-0-0-0--0-0-0-0--0-0-0-0--0-0-0-0--0-0-0-0-|
D---2-2-2-2--2-2-2-2--2-2-2-2--2-2-2-2--2-2-2-2--2-2-2-2--2-2-2-2--2-2-2-2-|
A---3-3-3-3--3-3-3-3--3-3-3-3--3-3-3-3--3-3-3-3--3-3-3-3--3-3-3-3--3-3-3-3-|
E--------------------------------------------------------------------------|

e---0-----------------0-----------------0-----------------0----------------|
B---x-----------------3-----------------1-----------------0----------------|
G---2-----------------2-----------------2-----------------2----------------|
D---2-----------------2-----------------2-----------------2----------------|
A---0-----------------0-----------------0-----------------0----------------|
E--------------------------------------------------------------------------|

"...and I...................seen................the cold and the rain....."

                                            
e---x-----------------x-----------------x-----------------x-(second time)--|
B---x-----------------x-----------------x-----------------x-(around no D)--|
G---2-----------------0-----------------7-----------------4-(just G twice)-|
D---3-----------------2-----------------7-----------------5----------------|
A---3-----------------3-----------------5-----------------5----------------|
E---1-----------------0-----------------x-----------------3----------------|

Chorus
                               
e---x-----------------x-----------------x----------------------------------|
B---5----------------(8)----------------x-----------(you can play the C)---|
G---5-----------------9-----------------5-----------(power chord on the)---|
D---5--(x8)-----------9--(x8)-----------7--(x16)----(lower strings-----)---|
A---3-----------------7-----------------7----------------------------------|
E---x-----------------x-----------------5----------------------------------|


that's pretty much it. i'm sure you can figure out the rest.
good luck.  shofixti7218@hotmail.com

            
            
Suggest correction
Creating personal tab
Creating personal tab
You can edit any tab online and save it as your Personal.

You can edit, replace or remove any tab part or add personal notes – all changes will be seen only by you.

Personal tabs can be accessed anytime from any device, even offline.
Learn more »
Give kudos to tab author, rate the tab!
1 2 3 4 5
comments
print report bad tab
guest
Wanna post a correction for this tab? Suggest correction