Oops, an error
Loading. Please wait.

Grace chords

version 3
version 3

Whole song

6,388 views 1 this week
no commentswrite comment
1 2 3 4 5
x 4
add to favorites
×
Save as Personal and add changes to this tab that will be seen only by you. Learn more ›
×
You can save this tab as Personal to edit and correct it or add notes. All changes will be seen only by you. Learn more »
launch autoscroll
font size
0
reset
transpose
0
reset
display chords
guitar tuner
edit
Autoscroll
slow
fast
+/-
esc
set tempo
stop
Strumming
There is no strumming pattern for this song yet. and get +5 IQ
The Grace - Neverending White Lights ft. Dallas Green

capo on 2

I find this way easier to play than the other tabs (as far as chord transitioning).


***NOTE***
im not sure what the second chord is in the chorus/couple other parts of the song. 
so I have decided to call it D*

D* is    --0--
         --0--
         --2--
         --0--
         --0--
         --0--

ok so...


Intro:

G - Bm - Em  (3x)

on 2nd time..

-----5-4-------5-4------5-4-----|
---5---------5--------5---------|
-6---------6--------6-----------|   x2
--------------------------------|
--------------------------------|
--------------------------------|



G	             Bm          Em
In better days I've been known to listen
 
G	            Bm       Em 
I go to waste all my time is missing 



G	           Bm                  
I'm mapping out my ending, 

Em
it's never gonna happen now 

G	                  Bm             
These things are condescending 

 Em
with everybody backing down 



G	                 Bm           Em
You pray to stars that can help you get by

G	            Bm       Em
And all at once you forget to try 



G	          Bm
I'd go there if you let me,

 Em
they're never gonna find me now 

G	          Bm
My life is always empty
 
Em
and in and out of doubt 



Chorus:
D*	                        Em		                
Your not coming back for me, these things they will never be 
                             
D*                           Em                        D*        Em
I'm so used to being wrong, so put me where I belong 



G
I'll get back to you, 

Bm
God knows I try,
 
G              Bm
but I still lose 

G
And I get back to you, 

Bm
these days run by,

G             Bm       
but I still lose 


Interlude

G                   Bm         Em      

-------------5-4-------5-4-----5-4---|
-----------5---------5--------5------|
-4-4-4-4h6---------6--------6--------|
-------------------------------------|
-------------------------------------|
-------------------------------------|

G             Bm          Em

-----5-4-------5-4------5/7-5-4-|
---5---------5--------5---------|
-6---------6--------6-----------|  
--------------------------------|
--------------------------------|
--------------------------------|





G              Bm          Em
Angels say they can make you suffer 

G              Bm           Em
They give and take like a vicious lover 

G	          Bm
When all this loses meaning, 

Em
You'll never want it back somehow 

G         Bm
Awake but still I'm dreaming 

Em
And never waking up 

D*                              Em					
Your not coming back for me, these things they will never be 

D*                          Em                          D*           Em 
I'm so used to being wrong, so put me where I belong 


G
I'll get back to you, 

Bm
God knows I try,
 
G               Bm
but I still lose 

G
And I get back to you, 

Bm
these days run by,

G              Bm     
but I still lose         lose



Interlude

G                   Bm         Em      

-------------5-4-------5-4-----5-4---|
-----------5---------5--------5------|
-4-4-4-4h6---------6--------6--------|
-------------------------------------|
-------------------------------------|
-------------------------------------|

G             Bm          Em

-----5-4-------5-4------5/7-5-4-|
---5---------5--------5---------|
-6---------6--------6-----------|  
--------------------------------|
--------------------------------|
--------------------------------|


G        Bm           Em
Alone...Where I'm not alone  (4x)

Em
alone

            
            
Suggest correction
Creating personal tab
Creating personal tab
You can edit any tab online and save it as your Personal.

You can edit, replace or remove any tab part or add personal notes – all changes will be seen only by you.

Personal tabs can be accessed anytime from any device, even offline.
Learn more »
comments
print report bad tab
guest
You may want to rate the tab now too:
select rating
Wanna post a correction for this tab? Suggest correction