Oops, an error
Loading. Please wait.

This Godless Endeavor tab

version 1
version 1

Whole song

Interactive

15,964 views 24 this week
3 commentsread comments
1 2 3 4 5
x 6
add to favorites
×
Save as Personal and add changes to this tab that will be seen only by you. Learn more ›
×
You can save this tab as Personal to edit and correct it or add notes. All changes will be seen only by you. Learn more »
launch autoscroll
font size
0
reset
how to read this tab
guitar tuner
edit
Autoscroll
slow
fast
+/-
esc
set tempo
stop
Author
Difficulty
Gtr I (A# D# G# C# F# A# D#) - 'Jeff Loomis & Steve Smyth (Acoustic Rhythm)'
Gtr II (A# D# G# C# F# A# D#) - 'Jeff Loomis'
Gtr III (A# D# G# C# F# A# D#) - 'Steve Smyth'
Gtr IV (A# D# G# C# F# A# D#) - 'Steve Smyth (Acoustic Lead)'
Gtr V (A# D# G# C# F# A# D#) - 'Jeff Loomis (Accompianment Lead)'


 Acoustic Intro
  Moderately Q=115
 4/4
  Gtr I
  E E E E E E E E   E  E E E E E E E   E E E E E E E E   E  E E E E E E E
|---------0-------|----------0-------|---------0-------|----------0-------|
|-----0-----0-----|----0-------0-----|-----0-----0-----|----0-------0-----|
|---4---4-----4---|-4----4-------4---|---5---5-----5---|-5----5-------5---|
|-5-------------5-|--------5-------5-|-4-------------4-|--------4-------4-|
|-----------------|------------------|-----------------|------------------|
|-----------------|------------------|-----------------|------------------|
|-----------------|------------------|-----------------|------------------|
|
| Gtr IV
| W                 H.           E E   W                 H.           E E
|-----------------|------------------|-----------------|------------------|
|-----------------|--------------7-8-|-7---------------|--------------5-7-|
|-----------------|------------------|-----------------|------------------|
|-----------------|------------------|-----------------|------------------|
|-----------------|------------------|-----------------|------------------|
|-----------------|------------------|-----------------|------------------|
|-----------------|------------------|-----------------|------------------|


  E E E E E E E E   E  E E E E E E  E   E E E E E E E E   E  E E E E E E E
|---------0-------|----------0--------|---------0-------|----------0-------|
|-----0-----0-----|----0-------0------|-----0-----0-----|----0-------0-----|
|---8---8-----8---|-8----8-------8----|---7---7-----7---|-7----7-------7---|
|-7-------------7-|--------7--------7-|-6-------------6-|--------6-------6-|
|-----------------|-------------------|-----------------|------------------|
|-----------------|-------------------|-----------------|------------------|
|-----------------|-------------------|-----------------|------------------|
|
| W                 H.           E  E   W                 H.           E E
|-7---------------|-------------------|-----------------|------------------|
|-----------------|----------------10-|-9---------------|----------------9-|
|-----------------|-------------------|-----------------|------------------|
|-----------------|-------------------|-----------------|------------------|
|-----------------|-------------------|-----------------|------------------|
|-----------------|-------------------|-----------------|------------------|
|-----------------|-------------------|-----------------|------------------|


  E E E E E E E E   E  E E E E E E E   E E E E E E E E   E E E E E E E E
|---------0-------|----------0-------|---------0-------|---------0-------|
|-----0-----0-----|----0-------0-----|-----0-----0-----|---0-------0-----|
|---7---7-----7---|-7----7-------7---|---6---6-----6---|-6---6-------6---|
|-5-------------5-|--------5-------5-|-5-------------5-|-------5-------5-|
|-----------------|------------------|-----------------|-----------------|
|-----------------|------------------|-----------------|-----------------|
|-----------------|------------------|-----------------|-----------------|
|
| W                 H.           E E   W                 W
|-----------------|------------------|-----------------|-----------------|
|-8---------------|----------------8-|-8---------------|-----------------|
|-----------------|------------------|-----------------|-----------------|
|-----------------|------------------|-----------------|-----------------|
|-----------------|------------------|-----------------|-----------------|
|-----------------|------------------|-----------------|-----------------|
|-----------------|------------------|-----------------|-----------------|


  E E E E E E E E   E E E E E E E E   E E E E E E E E   W
|---------0-------|---------0-------|---------0-----0-|------|
|-----0-----0-----|---0-------0-----|-----0-----0-----|------|
|---4---4-----4---|-4---4-------4---|---4---4-----2---|-1----|
|-3-------------3-|-------3-------3-|-2---------------|------|
|-----------------|-----------------|-----------------|------|
|-----------------|-----------------|-----------------|------|
|-----------------|-----------------|-----------------|------|
|
| W                 W                 W                 W
|-----------------|-----------------|-----------------|------|
|-----------------|-----------------|-----------------|------|
|-----------------|-----------------|-----------------|------|
|-----------------|-----------------|-----------------|------|
|-----------------|-----------------|-----------------|------|
|-----------------|-----------------|-----------------|------|
|-----------------|-----------------|-----------------|------|


    E  E E   E  E E    E   E      E   E E E E E E E
|---------------0------------|--------------0-------|
|--------0--------0----------|--------0-------0-----|
|------4-----4---------4-----|----4-----4-------4---|
|---5----------------------5-|------------5-------5-|
|----------------------------|----------------------|
|----------------------------|----------------------|
|----------------------------|----------------------|
|
|   Q.       Q.       +Q         +W
|-<12>-----------------------|----------------------|
|----------<12>-----(<12>)---|-(<12>)---------------|
|----------------------------|----------------------|
|----------------------------|----------------------|
|----------------------------|----------------------|
|----------------------------|----------------------|
|----------------------------|----------------------|


   E  E E  E  E E   E   E     E   E E E E E E E
|-------------0-----------|-------------0-------|
|-------0-------0---------|-------0-------0-----|
|-----5----5--------5-----|---5-----5-------5---|
|--4--------------------4-|-----------4-------4-|
|-------------------------|---------------------|
|-------------------------|---------------------|
|-------------------------|---------------------|
|
|  Q.      Q.      +Q        +W
|-<7>---------------------|---------------------|
|---------<7>-----(<7>)---|-(<7>)---------------|
|-------------------------|---------------------|
|-------------------------|---------------------|
|-------------------------|---------------------|
|-------------------------|---------------------|
|-------------------------|---------------------|


   E  E E  E  E E   E   E     E   E E E E E E E
|-------------0-----------|-------------0-------|
|-------0-------0---------|-------0-------0-----|
|-----8----8--------8-----|---8-----8-------8---|
|--7--------------------7-|-----------7-------7-|
|-------------------------|---------------------|
|-------------------------|---------------------|
|-------------------------|---------------------|
|
|  Q.      Q.      +Q        +W
|-------------------------|---------------------|
|---------<7>-----(<7>)---|-(<7>)---------------|
|-<5>---------------------|---------------------|
|-------------------------|---------------------|
|-------------------------|---------------------|
|-------------------------|---------------------|
|-------------------------|---------------------|


   E  E E   E  E E    E   E      E   E E E E E E E
|--------------0------------|--------------0-------|
|-------0--------0----------|--------0-------0-----|
|-----7-----7---------7-----|----7-----7-------7---|
|--6----------------------6-|------------6-------6-|
|---------------------------|----------------------|
|---------------------------|----------------------|
|---------------------------|----------------------|
|
|  Q.       Q.       +Q         +W
|---------<12>-----(<12>)---|-(<12>)---------------|
|-<7>-----------------------|----------------------|
|---------------------------|----------------------|
|---------------------------|----------------------|
|---------------------------|----------------------|
|---------------------------|----------------------|
|---------------------------|----------------------|


  E E E E  E     E  E  E     E   E E  E E  E  E E
|----------0-------------|--------------0---------|
|-----0----------0-------|-------0---------0------|
|---7---7-----------7----|---7-----7----------7---|
|-5--------------------5-|------------5---------5-|
|------------------------|------------------------|
|------------------------|------------------------|
|------------------------|------------------------|
|
| H        S  E.    E  E    +E   Q    Q    Q.
|------------------------|------------------------|
|---------12s14----14-14-|-(14)-12---11---12------|
|------------------------|------------------------|
|------------------------|------------------------|
|------------------------|------------------------|
|------------------------|------------------------|
|------------------------|------------------------|


   E  E  E E E E E E   E    E  E  E E E E E
|------------0-------|--------------0-------|
|--------0-----0-----|------0---------0-----|
|-----6----6-----6---|-6-------6--------6---|
|--5---------------5-|------------5-------5-|
|--------------------|----------------------|
|--------------------|----------------------|
|--------------------|----------------------|
|
|  E  E  H       Q     S E.   +H.
|--------------------|----------------------|
|-11-12-11-------9---|-7s9----(9)-----------|
|--------------------|----------------------|
|--------------------|----------------------|
|--------------------|----------------------|
|--------------------|----------------------|
|--------------------|----------------------|


                                                            3/4
  E E    E E E  E    E E    E  E E E E E E E   W             +H.
|------------0-----------|-----------0-------|-------------|--------||
|--------0------0--------|-----0-------0-----|-------------|--------||
|---4------4---------4---|--4----4-------4---|-------------|--------||
|-3--------------------3-|---------3-------3-|-3-----------|-(3)----||
|------------------------|-------------------|-------------|--------||
|------------------------|-------------------|-------------|--------||
|------------------------|-------------------|-------------|--------||
|
| E S E.   E E.   E.   E   +E  Q   Q   Q   E   E E H.        +H.
|------------------------|-------------------|-------------|--------||
|---7s9----9-9----7----7-|-(7)-5---5---4---2-|-2s1-1-------|-(1)----||
|------------------------|-------------------|-------------|--------||
|------------------------|-------------------|-------------|--------||
|------------------------|-------------------|-------------|--------||
|------------------------|-------------------|-------------|--------||
|------------------------|-------------------|-------------|--------||


 Metal Intro
  Slower Feel Q=75
 4/4
  Gtrs II, III
                            |-3-|
  Q   H     Q    Q  Q  Q  E S S S   Q   H     Q    Q  Q  Q  E  E
|--------------|------------------|--------------|----------------|
|--------------|------------------|--------------|----------------|
|-----4--------|------------------|-----4--------|----------------|
|-----4-----5--|-2--7--5----------|-----4-----5--|-2--7--5--5s10--|
|-2---2-----5--|-2--7--5--3-------|-2---2-----5--|-2--7--5--5s10--|
|-2--(2)----3--|-0--5--3--3-------|-2--(2)----3--|-0--5--3--3s=8--|
|-0--(0)-------|----------1-1-1-1-|-0--(0)-------|----------------|


  Gtr II
         ~~~~                      ~~~~~~~~~~~~
   Q    +Q    E  E  E  E    Q      H.
|--0----(0)---0--0--0--0-|--0------0----------|
|-12---(12)--12-14-15-12-|-15b17--15b17-------|
|------------------------|--------------------|
|------------------------|--------------------|
|------------------------|--------------------|
|------------------------|--------------------|
|------------------------|--------------------|
|
| Gtr III
|  H.               Q       H.             Q
|------------------------|--------------------|
|------------------------|--------------------|
|------------------------|--------------------|
|------------------------|--------------------|
|--5----------------7----|--7--------------7--|
|--3----------------5----|--4--------------5--|
|------------------------|--------------------|


 ~~~~~
   Q    E  E  a  Q    E  E    E  E  E  E  E  E   E  S  S
|--0----0--0--0-(0)---0--0-|--0-(0)-0-(0)-0-(0)--0--0-(0)-|
|-12---12-14-14h15---14-12-|-12s=7--7s=8--8s=5---5--4s=5--|
|--------------------------|------------------------------|
|--------------------------|------------------------------|
|--------------------------|------------------------------|
|--------------------------|------------------------------|
|--------------------------|------------------------------|
|
|                                                ~~~
|  H.                 Q       H.                 Q
|--------------------------|------------------------------|
|--------------------------|------------------------------|
|--------------------------|------------------------------|
|--------------------------|------------------------------|
|--5------------------7----|------------------------------|
|--3------------------5----|--7-----------------[3]-------|
|--------------------------|--5---------------------------|


  Q  a  E  E +E  a  E  E E   a  Q   a  Q   Q  Q
|-0--0-(0)-0-(0)-0-(0)-0-0-|-0-(0)--0-(0)--0----------|
|-4--4h=5--4-(4)-4h=5--4-5-|-5s=7---7s=5---4--0-------|
|--------------------------|------------------5-------|
|--------------------------|--------------------------|
|--------------------------|--------------------------|
|--------------------------|--------------------------|
|--------------------------|--------------------------|
|
|                                               |-3-|
| Q     H              Q        Q      Q   Q  E S S S
|--------------------------|--------------------------|
|--------------------------|--------------------------|
|-------4------------------|--------------------------|
|-------4--------------5---|----2------7---5----------|
|-2-----2--------------5---|----2------7---5--3-------|
|-2----(2)-------------3---|----0------5---3--3-------|
|-0----(0)-----------------|------------------1-1-1-1-|


                                  \1/   \1/   \4
      ~~~                  ~~~~~
  Q  +H     E  E     Q    +Q     +S    +E.   +Q
|-------------<5>-|----------------------------------|
|-0--(0)----0-----|-<5>--(<5>)--(<5>)-(<5>)-(<5>)----|
|-4--(4)----4-----|----------------------------------|
|-----------------|----------------------------------|
|-----------------|----------------------------------|
|-----------------|----------------------------------|
|-----------------|----------------------------------|
|
| Q   H     Q        Q     Q      Q           E    E
|-----------------|----------------------------------|
|-----------------|----------------------------------|
|-----4-----------|----------------------------------|
|-----4-----5-----|--2-----7------5-----------5s==10-|
|-2---2-----5-----|--2-----7------5-----------5s==10-|
|-2--(2)----3-----|--0-----5------3-----------3s===8-|
|-0--(0)----------|----------------------------------|


        ~~                               ~~~~~~~~~~
   Q    Q   E  E  E  E    Q       E  E  +Q    Q
|--0----0---0--0--0--0-|--0-------0--0--(0)---0---|
|-12---12--12-14-15-12-|-15b17===15-15-(15)--15r--|
|----------------------|--------------------------|
|----------------------|--------------------------|
|----------------------|--------------------------|
|----------------------|--------------------------|
|----------------------|--------------------------|
|
|  H.             Q       H.                  Q
|----------------------|--------------------------|
|----------------------|--------------------------|
|----------------------|--------------------------|
|----------------------|--------------------------|
|--5--------------7----|--7-------------------7---|
|--3--------------5----|--4-------------------5---|
|----------------------|--------------------------|


 ~~~~~                         TP
   Q    E  E  Q   E  E    Q    H.
|--0----0--0--0---0--0-|--------------------|
|-12---12-14-15--14-12-|-20---20b23---------|
|----------------------|--------------------|
|----------------------|--------------------|
|----------------------|--------------------|
|----------------------|--------------------|
|----------------------|--------------------|
|
|                                       ~~~
|  H.             Q       H.            Q
|----------------------|--------------------|
|----------------------|--------------------|
|----------------------|--------------------|
|----------------------|--------------------|
|--5--------------7----|--------------------|
|--3--------------5----|--7------------[3]--|
|----------------------|--5-----------------|


   TP                  ~~~~~~~~~~
   W                   Q.     E  E    E.   S  E
|-------------------|-------------------------------|
|-22b24=============|=22-----22r--------------------|
|-------------------|---------------/12s==11-11-----|
|-------------------|-------------------------------|
|-------------------|-------------------------------|
|-------------------|------------x\-----------------|
|-------------------|------------x\-----------------|
|
|                                             |-3-|
|  Q       H     Q     Q   Q     Q      E     S S S
|-------------------|-------------------------------|
|-------------------|-------------------------------|
|----------4--------|-------------------------------|
|----------4-----5--|--2---7-----5------------------|
|--2-------2-----5--|--2---7-----5------3-----------|
|--2------(2)----3--|--0---5-----3------3-----------|
|--0------(0)-------|-------------------1-----1-1-1-|


                                               Faster E.=150
 6/4                                            3/4
    ~~~~
               |--3---|
   +Q.     E  +S   S  S  Q   +H            +E     +H.
|----------------------------------------------|----------------------------------||
|----------------------------------------------|----------------------------------||
|-(11)-----------------------------------------|----------------------------------||
|--------/12-(12)-11h12-11--(11)----------(11)-|-(11)\----------------------------||
|----------------------------------------------|----------------------------------||
|----------------------------------------------|----------------------------------||
|----------------------------------------------|----------------------------------||
|
|                                                      PM        PM  PM|   PM|
|                                                          |-3-|
|   W                            +Q    Q           S   S S S S S S S S S S S S
|----------------------------------------------|----------------------------------||
|----------------------------------------------|----------------------------------||
|----------------------------------------------|----------------------------------||
|----------------------------------------------|----------------------------------||
|---2----------------------------(2)--14\------|----------------------------------||
|---2----------------------------(2)--14\------|--10-----8-7h8p7---5-----3--------||
|---0----------------------------(0)--12\------|-------8---------8---7-5---5-3----||


 Bridge
 3/4
  Gtrs II, III
    PM------|   PM------|     PM------|   PM        PM
                                              |-3-|
  S S S S S S S S S S S S   S S S S S S S S S S S S S
|-------------------------|---------------------------|
|-------------------------|---------------------------|
|-------------------------|---------------------------|
|-------------------------|---------------------------|
|-------------------------|---------------------------|
|-7-----------7-----------|-8-----------8---7-5h7p5---|
|---6-5-0-5-6---6-5-0-5-6-|---6-5-0-5-6---6---------6-|


    PM------|   PM------|      PM        PM  PM|   PM|
                                   |-3-|
  S S S S S S S S S S S S    S S S S S S S S S S S S S
|-------------------------|-----------------------------|
|-------------------------|-----------------------------|
|-------------------------|-----------------------------|
|-------------------------|-----------------------------|
|-------------------------|-----------------------------|
|-7-----------7-----------|-10---8-7h8p7---5-----3------|
|---6-5-0-5-6---6-5-0-5-6-|----8---------8---7-5---5-3--|


  Gtr II
    PM------|   PM------|     PM------|   PM        PM
                                              |-3-|
  S S S S S S S S S S S S   S S S S S S S S S S S S S
|-------------------------|---------------------------|
|-------------------------|---------------------------|
|-------------------------|---------------------------|
|-------------------------|---------------------------|
|-------------------------|---------------------------|
|-7-----------7-----------|-8-----------8---7-5h7p5---|
|---6-5-0-5-6---6-5-0-5-6-|---6-5-0-5-6---6---------6-|
|
| GtGtr III
|   PM------|   PM------|     PM------|   PM        PM
|                                             |-3-|
| S S S S S S S S S S S S   S S S S S S S S S S S S S
|-------------------------|---------------------------|
|-------------------------|---------------------------|
|-------------------------|---------------------------|
|-------------------------|---------------------------|
|-------------------------|---------------------------|
|-7-----------7-----------|-8-----------8---7-5h7p5---|
|---6-5-0-5-6---6-5-0-5-6-|---6-5-0-5-6---6---------6-|


    PM------|   PM------|    ~~~~~~~~~
  S S S S S S S S S S S S    Q.    Q.
|-------------------------|--------------||
|-------------------------|--------------||
|-------------------------|--------------||
|-------------------------|--------------||
|-------------------------|-[7]----------||
|-7-----------7-----------|-------[7]----||
|---6-5-0-5-6---6-5-0-5-6-|--------------||
|
|   PM------|   PM------|    ~~~~~~~~~
| S S S S S S S S S S S S    Q.    Q.
|-------------------------|--------------||
|-------------------------|--------------||
|-------------------------|--------------||
|-------------------------|--------------||
|-------------------------|-[5]----------||
|-7-----------7-----------|-------[5]----||
|---6-5-0-5-6---6-5-0-5-6-|--------------||


  PM
  E H               E     H.
|-----------------------|----------------------|
|-----------------------|----------------------|
|-----------------------|----------------------|
|-----------------------|----------------------|
|-----------------------|----------------------|
|-2---------------------|----------------------|
|-0---------------------|----------------------|
|
|     PM--------------|        PM--|     PM--|
| E S S S S S S S S S S   E  S S S S E S S S S
|-----------------------|----------------------|
|-----------------------|----------------------|
|-----------------------|----------------------|
|-----------------------|----------------------|
|-6-6-------------------|-7--7-------3-3-------|
|-7-7-------------------|-8--8-------5-5-------|
|-----0-0-0---0-0-0-0-0-|------0-0-0-----0-0-0-|


                           |-3-|
  H.                       S S S S S S S S S S S S S
|------------------------|------------------------------||
|------------------------|------------------------------||
|------------------------|------------------------------||
|------------------------|------------------------------||
|------------------------|-3h6p3---6---3----------------||
|------------------------|-------5---5---2-5---2--------||
|------------------------|-------------------4---1-4----||
|
|      PM--------------|
|                          |-3-|
| E  S S S S S S S S S S   S S S S S S S S S S S S S
|------------------------|------------------------------||
|------------------------|------------------------------||
|------------------------|------------------------------||
|------------------------|------------------------------||
|-6--6-------------------|-3h6p3---6---3----------------||
|-7--7-------------------|-------5---5---2-5---2--------||
|------0-0-0---0-0-0-0-0-|-------------------4---1-4----||


 Verse 1
  Gtrs II, III
-----------------------------------------------
  E S S S S S S S S S S   E S S S S E S S S S
|-----------------------|---------------------|
|-----------------------|---------------------|
|-----------------------|---------------------|
|-----------------------|---------------------|
|-6-6-------------------|-7-7-------3-3-------|
|-7-7-------------------|-8-8-------5-5-------|
|-----0-0-0---0-0-0-0-0-|-----0-0-0-----0-0-0-|


 -----------------------------------------------|
  E S S S S S S S S S S   S S S S S S S S S S S S
|-----------------------|-------------------------|
|-----------------------|-------------------------|
|-----------------------|-------------------------|
|-----------------------|-------------------------|
|-2-2-------------------|-------------------------|
|-2-2-------------------|-7-8-8-8-5-8---8---8-----|
|-----0-0-0---0-0-0-0-0-|-------------7---5---4-0-|


      PM--------------|       PM--|     PM--|
  E S S S S S S S S S S   E S S S S E S S S S
|-----------------------|---------------------|
|-----------------------|---------------------|
|-----------------------|---------------------|
|-----------------------|---------------------|
|-6-6-------------------|-7-7-------3-3-------|
|-7-7-------------------|-8-8-------5-5-------|
|-----0-0-0---0-0-0-0-0-|-----0-0-0-----0-0-0-|


      PM--------------|
                          |-3-|
  E S S S S S S S S S S   S S S S S S S S S S S S S
|-----------------------|------------------------------|
|-----------------------|------------------------------|
|-----------------------|------------------------------|
|-----------------------|------------------------------|
|-2-2-------------------|-3h6p3---6---3----------------|
|-2-2-------------------|-------5---5---2-5---2--------|
|-----0-0-0---0-0-0-0-0-|-------------------4---1-4----|


-----------------------------------------------
  E S S S S S S S S S S   E S S S S E S S S S
|-----------------------|---------------------|
|-----------------------|---------------------|
|-----------------------|---------------------|
|-----------------------|---------------------|
|-6-6-------------------|-7-7-------3-3-------|
|-7-7-------------------|-8-8-------5-5-------|
|-----0-0-0---0-0-0-0-0-|-----0-0-0-----0-0-0-|


 -----------------------------------------------|
  E S S S S S S S S S S   S S S S S S S S S S S S
|-----------------------|-------------------------||
|-----------------------|-------------------------||
|-----------------------|-------------------------||
|-----------------------|-------------------------||
|-2-2-------------------|-------------------------||
|-2-2-------------------|-7-8-8-8-5-8---8---8-----||
|-----0-0-0---0-0-0-0-0-|-------------7---5---4-0-||


 Breakdown
  See Performance Notes E.=151
  Gtr II
  PM-------------------------------------------------
  S S S S S S S S S S S S   S S S S S S S S S S S S
|-------------------------|-------------------------|
|-------------------------|-------------------------|
|-0-------0---0-------0---|-0-------0---0-------0---|
|---4---4---4---4---4---4-|---4---4---4---4---4---4-|
|-----5-----------5-------|-----6-----------6-------|
|-------------------------|-------------------------|
|-------------------------|-------------------------|
|
| Gtr III
| S S S S S S S S S S S S   S S S S S S S S S S S S
|-------------------------|-------------------------|
|-------------------------|-------------------------|
|-------------------------|-------------------------|
|-------------------------|-------------------------|
|-5-----5-----5-----5-5-5-|-5-----5-----5-----5-5-5-|
|-------------------------|-------------------------|
|---3-3---3-3---3-3-------|---4-4---4-4---4-4-------|


 -------------------------------------------------|
  S S S S S S S S S S S S   S S S S S S S S S S S S
|-------------------------|-------------------------|
|-------------------------|-------------------------|
|-0-------0---0-------0---|-0-------0---0-------0---|
|---4---4---4---4---4---4-|---4---4---4---4---4---4-|
|-----3-----------3-------|-----6-----------6-------|
|-------------------------|-------------------------|
|-------------------------|-------------------------|
|
| S S S S S S S S S S S S   S S S S S S S S S S S S
|-------------------------|-------------------------|
|-------------------------|-------------------------|
|-------------------------|-------------------------|
|-------------------------|-------------------------|
|-5s3---3-----3-----3-3-3-|-3s6---6-----6-----6-6-6-|
|-------------------------|-------------------------|
|-----1---1-1---1-1-------|-----4---4-4---4-4-------|


  PM-------------------------------------------------
  S S S S S S S S S S S S   S S S S S S S S S S S S
|-------------------------|-------------------------|
|-------------------------|-------------------------|
|-0-------0---0-------0---|-0-------0---0-------0---|
|---4---4---4---4---4---4-|---4---4---4---4---4---4-|
|-----5-----------5-------|-----6-----------6-------|
|-------------------------|-------------------------|
|-------------------------|-------------------------|
|
| S S S S S S S S S S S S   S S S S S S S S S S S S
|-------------------------|-------------------------|
|-------------------------|-------------------------|
|-------------------------|-------------------------|
|-------------------------|-------------------------|
|-5-----5-----5-----5-5-5-|-5-----5-----5-----5-5-5-|
|-------------------------|-------------------------|
|---3-3---3-3---3-3-------|---4-4---4-4---4-4-------|


 -------------------------------------------------|
  S S S S S S S S S S S S   S S S S S S S S S S S S
|-------------------------|-------------------------||
|-------------------------|-------------------------||
|-0-------0---0-------0---|-0-------0---0-------0---||
|---4---4---4---4---4---4-|---4---4---4---4---4---4-||
|-----3-----------3-------|-----6-----------6-------||
|-------------------------|-------------------------||
|-------------------------|-------------------------||
|
| S S S S S S S S S S S S   S S S S S S S S S S S S
|-------------------------|-------------------------||
|-------------------------|-------------------------||
|-------------------------|-------------------------||
|-------------------------|-------------------------||
|-5s3---3-----3-----3-3-3-|-3s6---6-----6-----6-6-6-||
|-------------------------|-------------------------||
|-----1---1-1---1-1-------|-----4---4-4---4-4-------||


   Verses 2 & 3
    $
    Gtrs II, III
        PM--------------|       PM--|     PM--|
    E S S S S S S S S S S   E S S S S E S S S S
||------------------------|---------------------|
||------------------------|---------------------|
||o-----------------------|---------------------|
||------------------------|---------------------|
||o-6-6-------------------|-7-7-------3-3-------|
||--7-7-------------------|-8-8-------5-5-------|
||------0-0-0---0-0-0-0-0-|-----0-0-0-----0-0-0-|


      PM--------------|
                          |-3-|
  E S S S S S S S S S S   S S S S S S S S S S S S S
|-----------------------|-----------------------------|
|-----------------------|-----------------------------|
|-----------------------|-----------------------------|
|-----------------------|-----------------------------|
|-6-6-------------------|-3h6p3---6---3---------------|
|-7-7-------------------|-------5---5---2-5---2-------|
|-----0-0-0---0-0-0-0-0-|-------------------4---1-4---|


-----------------------------------------------
  E S S S S S S S S S S   E S S S S E S S S S
|-----------------------|---------------------|
|-----------------------|---------------------|
|-----------------------|---------------------|
|-----------------------|---------------------|
|-6-6-------------------|-7-7-------3-3-------|
|-7-7-------------------|-8-8-------5-5-------|
|-----0-0-0---0-0-0-0-0-|-----0-0-0-----0-0-0-|


                                         To Coda
 -----------------------------------------------|
  E S S S S S S S S S S   S S S S S S S S S S S S
|-----------------------|--------------------------||
|-----------------------|--------------------------||
|-----------------------|-------------------------o||
|-----------------------|--------------------------||
|-2-2-------------------|-------------------------o||
|-2-2-------------------|-7-8-8-8-5-8---8---8------||
|-----0-0-0---0-0-0-0-0-|-------------7---5---4-0--||


 Chorus
  Gtr V
  H.                            H.
|----------------------------|-----------------------------|
|----------------------------|-----------------------------|
|-9b11-----------------------|-12b14-----------------------|
|----------------------------|-----------------------------|
|-7b9------------------------|-10b12-----------------------|
|----------------------------|-----------------------------|
|----------------------------|-----------------------------|
|
| Gtrs II, III
| S    S S S S S S S S S S S    S    S S S S S S S S S S S
|----------------------------|-----------------------------|
|----------------------------|-----------------------------|
|----------------------------|-----------------------------|
|--------3-----3-----3-----3-|---------3-----3-----3-----3-|
|------5-----5-----5-----5---|-------5-----5-----5-----5---|
|-5--------4-----5-----0-----|--5--------4-----5-----0-----|
|----------------------------|-----------------------------|


   H.                            H.
|-----------------------------|-----------------------------|
|-----------------------------|-----------------------------|
|-11b13-----------------------|-14b16-----------------------|
|-----------------------------|-----------------------------|
|--9b11-----------------------|-12b14-----------------------|
|-----------------------------|-----------------------------|
|-----------------------------|-----------------------------|
|
|  S    S S S S S S S S S S S    S    S S S S S S S S S S S
|-----------------------------|-----------------------------|
|-----------------------------|-----------------------------|
|-----------------------------|-----------------------------|
|---------6-----6-----6-----6-|---------6-----6-----6-----6-|
|-------7-----7-----7-----7---|-------7-----7-----7-----7---|
|--7--------6-----7-----0-----|--7--------6-----7-----0-----|
|-----------------------------|-----------------------------|


   H.                            H.
|-----------------------------|-----------------------------|
|-----------------------------|-----------------------------|
|-12b14-----------------------|-----------------------------|
|-----------------------------|-----------------------------|
|-10b12-----------------------|-14b16-----------------------|
|-----------------------------|-----------------------------|
|-----------------------------|-----------------------------|
|
| Gtrs II, III
|  S    S S S S S S S S S S S    S    S S S S S S S S S S S
|-----------------------------|-----------------------------|
|-----------------------------|-----------------------------|
|-----------------------------|-----------------------------|
|---------3-----3-----3-----3-|---------3-----3-----3-----3-|
|-------5-----5-----5-----5---|-------5-----5-----5-----5---|
|--5--------4-----5-----0-----|--5--------4-----5-----0-----|
|-----------------------------|-----------------------------|


                              Gtr III
   H.                           Q.            Q        S S
|-----------------------------|----------------------------|
|-----------------------------|----------------------------|
|-----------------------------|--------------/9-------10-9-|
|-----------------------------|----------------------------|
|-12b14-----------------------|----------------------------|
|-----------------------------|----------------------------|
|-----------------------------|----------------------------|
|
|                             Gtr II
|  S    S S S S S S S S S S S   S  S S S S S  S S S S  S S
|-----------------------------|----------------------------|
|-----------------------------|----------------------------|
|-----------------------------|----------------------------|
|---------6-----6-----6-----6-|------6-----6------6------6-|
|-------7-----7-----7-----7---|----7-----7------7------7---|
|--7--------6-----7-----0-----|-7------6------7-----0------|
|-----------------------------|----------------------------|


 Guitar Solo - Smyth
  Gtr III
  H.                          S  S  S  S  S  S  S  S  S  S  S  S
|--------------------------|-------------------------------------|
|--------------------------|----------13p10-13-17p13----------13s|
|-7------------------------|-14p10-14----------------14----14----|
|--------------------------|----------------------------15-------|
|--------------------------|-------------------------------------|
|--------------------------|-------------------------------------|
|--------------------------|-------------------------------------|
|
| Gtr II
| PM--------------------------------------------------------------
| S  S S S S S S S S S S S    S  S  S  S  S  S  S  S  S  S  S  S
|--------------------------|-------------------------------------|
|--------------------------|-------------------------------------|
|--------------------------|-------------------------------------|
|-3------------------------|--3----------------------------------|
|-5--5-5-5-5-5-5-5-5-5-5-5-|--5--5--5--5--5--5--5--5--5--5--5--5-|
|-5--0-4-5-4-0-5-0-4-5-4-0-|--5--0--4--5--4--0--5--0--4--5--4--0-|
|--------------------------|-------------------------------------|


            |---3---|
   Q        S  S    S Q.             X  X T T T T T T T T T E     E.      S  S
|----------------------------------|----------------------------------------------|
|-12-------10h12p==10-9------------|-9h10p9p6---6---------------/17------18p17p===|
|----------------------------------|----------6---9-7p5---------------------------|
|----------------------------------|--------------------9-7p6---------------------|
|----------------------------------|----------------------------------------------|
|----------------------------------|----------------------------------------------|
|----------------------------------|----------------------------------------------|
|
|---------------------------------------------------------------------------|
|  S S S S  S    S    S  S S S S S   S      S   S   S   S   S S   S  S S  S  S
|----------------------------------|----------------------------------------------|
|----------------------------------|----------------------------------------------|
|----------------------------------|----------------------------------------------|
|--6-------------------------------|-6--------------------------------------------|
|--7-7-7-7--7----7----7--7-7-7-7-7-|-7------7---7---7---7---7-7---7--7-7--7--7----|
|--7-0-6-7--6----0----7--0-6-7-6-0-|-7------0---6---7---6---0-7---0--6-7--6--0----|
|----------------------------------|----------------------------------------------|


   ~~~
                               |--------5--------|  |---3---|  |---3---|
   H.                          S  S    S    S    S  S  S    S  S  S    S  S  S  S  S
|---------------------------|-19h20p==19p==17----------------------------------17h20-|
|-15------------------------|-------------------18--------------------------18-------|
|---------------------------|----------------------17--------------------17----------|
|---------------------------|-------------------------19--------------19-------------|
|---------------------------|------------------------------20p15h20------------------|
|---------------------------|--------------------------------------------------------|
|---------------------------|--------------------------------------------------------|
|
|  PM---------------------------------------------------------------------------------
|  S  S S S S S S S S S S S    S    S    S    S     S    S     S    S     S  S  S  S
|---------------------------|--------------------------------------------------------|
|---------------------------|--------------------------------------------------------|
|---------------------------|--------------------------------------------------------|
|--3------------------------|--3-----------------------------------------------------|
|--5--5-5-5-5-5-5-5-5-5-5-5-|--5----5----5----5-----5----5-----5----5-----5--5--5--5-|
|--5--0-4-5-4-0-5-0-4-5-4-0-|--5----0----4----5-----4----0-----5----0-----4--5--4--0-|
|---------------------------|--------------------------------------------------------|


   ~~
                           |---3---|
   H                +E     S  S    S    Q.            E    E       +E
|-19---------------(19)---17h19p==17-|-16-------------0----0-------(0)---||
|------------------------------------|---------------17---17b19r==(17)---||
|------------------------------------|-----------------------------------||
|------------------------------------|-----------------------------------||
|------------------------------------|-----------------------------------||
|------------------------------------|-----------------------------------||
|------------------------------------|-----------------------------------||
|
|----------------------------------------------------------------------|
|  S S S S S S S S   S  S  S    S       S  S S S S S  S S  S    S   S  S
|------------------------------------|-----------------------------------||
|------------------------------------|-----------------------------------||
|------------------------------------|-----------------------------------||
|--6---------------------------------|--6--------------------------------||
|--7-7-7-7-7-7-7-7---7--7--7----7----|--7--7-7-7-7-7--7-7--7----7---7--7-||
|--7-0-6-7-6-0-7-0---6--7--6----0----|--7--0-6-7-6-0--7-0--6----7---6--0-||
|------------------------------------|-----------------------------------||


  Gtr III
   >
   ~~~~~~~~~~~~~~~~~~~~~~~~~~~~~~~~
   H.                          +H.
|--0------------------------|--(0)-----------------------|
|-15------------------------|-(15)-----------------------|
|---------------------------|----------------------------|
|---------------------------|----------------------------|
|---------------------------|----------------------------|
|---------------------------|----------------------------|
|---------------------------|----------------------------|
|
| Gtr II
|  S  S S S S S S S S S S S     S  S S S S S S S S S S S
|---------------------------|----------------------------|
|---------------------------|----------------------------|
|---------------------------|----------------------------|
|-------3-----3-----3-----3-|--------3-----3-----3-----3-|
|-----5-----5-----5-----5---|------5-----5-----5-----5---|
|--5------4-----5-----0-----|---5------4-----5-----0-----|
|---------------------------|----------------------------|


  S S S S S S S S S S S S   S S S S S S S S S S S S
|-------------------------|-------------------------|
|-------------------------|-------------------------|
|-------------------------|-------------------------|
|-----6-----6-----6-----6-|-----6-----6-----6-----6-|
|---7-----7-----7-----7---|---7-----7-----7-----7---|
|-7-----6-----7-----0-----|-7-----6-----7-----0-----|
|-------------------------|-------------------------|
|
| S S S S S S S S S S S S   S S S S S S S S S S S S
|-------------------------|-------------------------|
|-------------------------|-------------------------|
|-------------------------|-------------------------|
|-----6-----6-----6-----6-|-----6-----6-----6-----6-|
|---7-----7-----7-----7---|---7-----7-----7-----7---|
|-7-----6-----7-----0-----|-7-----6-----7-----0-----|
|-------------------------|-------------------------|


  Gtrs II, III
  S S S S S S S S S S S S   S S S S S S S S S S S S
|-------------------------|-------------------------|
|-------------------------|-------------------------|
|-------------------------|-------------------------|
|-----3-----3-----3-----3-|-----3-----3-----3-----3-|
|---5-----5-----5-----5---|---5-----5-----5-----5---|
|-5-----4-----5-----0-----|-5-----4-----5-----0-----|
|-------------------------|-------------------------|


                                      D.S. al Coda
  S S S S S S S S S S S S   S S S S S S S S S S S S
|-------------------------|-------------------------||
|-------------------------|-------------------------||
|-------------------------|-------------------------||
|-----6-----6-----6-----6-|-----6-----6-----6-----6-||
|---7-----7-----7-----7---|---7-----7-----7-----7---||
|-7-----6-----7-----0-----|-7-----6-----7-----0-----||
|-------------------------|-------------------------||


    &
    PM-------------------------------------------------
    S S S S S S S S S S S S   S S S S S S S S S S S S
||--------------------------|-------------------------|
||--------------------------|-------------------------|
||o-------------------------|-------------------------|
||--3-----------------------|-3-----------------------|
||o-5-5-5-5-5-5-5-5-5-5-5-5-|-5-5-5-5-5-5-5-5-5-5-5-5-|
||--5-0-4-5-4-0-5-0-4-5-4-0-|-5-0-4-5-4-0-5-0-4-5-4-0-|
||--------------------------|-------------------------|


 -------------------------------------------------|
  S S S S S S S S S S S S   S S S S S S S S S S S S
|-------------------------|-----------------------------||
|-------------------------|-----------------------------||
|-------------------------|----------------------------o||
|-6-----------------------|-6---------------------------||
|-7-7-7-7-7-7-7-7-7-7-7-7-|-7-7-7-7-7-7-7-7-7-7-7-7----o||
|-7-0-6-7-6-0-7-0-6-7-6-0-|-7-0-6-7-6-0-7-0-6-7-6-0-----||
|-------------------------|-----------------------------||


  Gtr V
  H.                            H.
|----------------------------|-----------------------------|
|----------------------------|-----------------------------|
|-9b11-----------------------|-12b14-----------------------|
|----------------------------|-----------------------------|
|-7b9------------------------|-10b12-----------------------|
|----------------------------|-----------------------------|
|----------------------------|-----------------------------|
|
| Gtrs II, III
| S    S S S S S S S S S S S    S    S S S S S S S S S S S
|----------------------------|-----------------------------|
|----------------------------|-----------------------------|
|----------------------------|-----------------------------|
|--------3-----3-----3-----3-|---------3-----3-----3-----3-|
|------5-----5-----5-----5---|-------5-----5-----5-----5---|
|-5--------4-----5-----0-----|--5--------4-----5-----0-----|
|----------------------------|-----------------------------|


   H.                            H.
|-----------------------------|-----------------------------|
|-----------------------------|-----------------------------|
|-11b13-----------------------|-14b16-----------------------|
|-----------------------------|-----------------------------|
|--9b11-----------------------|-12b14-----------------------|
|-----------------------------|-----------------------------|
|-----------------------------|-----------------------------|
|
|  S    S S S S S S S S S S S    S    S S S S S S S S S S S
|-----------------------------|-----------------------------|
|-----------------------------|-----------------------------|
|-----------------------------|-----------------------------|
|---------6-----6-----6-----6-|---------6-----6-----6-----6-|
|-------7-----7-----7-----7---|-------7-----7-----7-----7---|
|--7--------6-----7-----0-----|--7--------6-----7-----0-----|
|-----------------------------|-----------------------------|


   H.                            H.
|-----------------------------|-----------------------------|
|-----------------------------|-----------------------------|
|-12b14-----------------------|-----------------------------|
|-----------------------------|-----------------------------|
|-10b12-----------------------|-14b16-----------------------|
|-----------------------------|-----------------------------|
|-----------------------------|-----------------------------|
|
|  S    S S S S S S S S S S S    S    S S S S S S S S S S S
|-----------------------------|-----------------------------|
|-----------------------------|-----------------------------|
|-----------------------------|-----------------------------|
|---------3-----3-----3-----3-|---------3-----3-----3-----3-|
|-------5-----5-----5-----5---|-------5-----5-----5-----5---|
|--5--------4-----5-----0-----|--5--------4-----5-----0-----|
|-----------------------------|-----------------------------|


   H.                            H.
|-----------------------------|-----------------------------||
|-----------------------------|-----------------------------||
|-----------------------------|-----------------------------||
|-----------------------------|-----------------------------||
|-12b14-----------------------|-14b16-----------------------||
|-----------------------------|-----------------------------||
|-----------------------------|-----------------------------||
|
|  S    S S S S S S S S S S S    S    S S S S S S S S S S S
|-----------------------------|-----------------------------||
|-----------------------------|-----------------------------||
|-----------------------------|-----------------------------||
|---------6-----6-----6-----6-|---------6-----6-----6-----6-||
|-------7-----7-----7-----7---|-------7-----7-----7-----7---||
|--7--------6-----7-----0-----|--7--------6-----7-----0-----||
|-----------------------------|-----------------------------||


 Bridge
  Even Faster Q=150
 4/4
   +W            W            W            W
|-------------|------------|------------|--------||
|-------------|------------|------------|--------||
|-------------|------------|------------|--------||
|-------------|------------|------------|--------||
|-(14)--------|------------|------------|--------||
|-------------|------------|------------|--------||
|-------------|------------|------------|--------||
|
|   W           +W           +W           +W
|-------------|------------|------------|--------||
|-------------|------------|------------|--------||
|-------------|------------|------------|--------||
|-------------|------------|------------|--------||
|---2---------|-(2)--------|-(2)--------|-(2)----||
|---2---------|-(2)--------|-(2)--------|-(2)----||
|---0---------|-(0)--------|-(0)--------|-(0)----||


   3/4
    Gtrs II, III
    PM-------------------------------------------------
    S S S S S S S S S S S S   S S S S S S S S S S S S
||--------------------------|-------------------------|
||--------------------------|-------------------------|
||o-------------------------|-------------------------|
||--------------------------|-------------------------|
||o-8-----------------------|-8-----------------5-----|
||----7---7-----5-7-8-7-5-0-|---7---7-----5-7-8---8-7-|
||------6---6-0-------------|-----6---6-0-------------|


 -------------------------------------------------|
  S S S S S S S S S S S S   S S S S S S S S S S S S
|-------------------------|----------------------------||
|-------------------------|----------------------------||
|-------------------------|---------------------------o||
|-------------------------|----------------------------||
|-8-----------------------|-8-----------------5-------o||
|---7---7-----5-7-8-7-5-0-|---7---7-----5-7-8---8-7----||
|-----6---6-0-------------|-----6---6-0----------------||


    PM----------------------------------------------|
    S S S S S S S S S S S S   S S S S S S S S S S S S
||--------------------------|--------------------------||
||--------------------------|--------------------------||
||o-------------------------|-------------------------o||
||--------------------------|--------------------------||
||o-------------------------|-------------------------o||
||--------------------------|--------------------------||
||--9-6-0-9-6-0-9-6-0-9-6-0-|-9-6-0-9-6-0-9-6-0-2-1-0--||


  PM-------------------------------------------------
  S S S S S S S S S S S S   S S S S S S S S S S S S
|-------------------------|-------------------------|
|-------------------------|-------------------------|
|-------------------------|-------------------------|
|-------------------------|-------------------------|
|-8-----------------------|-8-----------------5-----|
|---7---7-----5-7-8-7-5-0-|---7---7-----5-7-8---8-7-|
|-----6---6-0-------------|-----6---6-0-------------|


 -------------------------------------------------|
  S S S S S S S S S S S S   S S S S S S S S S S S S
|-------------------------|-------------------------|
|-------------------------|-------------------------|
|-------------------------|-------------------------|
|-------------------------|-------------------------|
|-8-----------------------|-8-----------------5-----|
|---7---7-----5-7-8-7-5-0-|---7---7-----5-7-8---8-7-|
|-----6---6-0-------------|-----6---6-0-------------|


    PM----------------------------------------------|
    S S S S S S S S S S S S   S S S S S S S S S S S S
||--------------------------|--------------------------||
||--------------------------|--------------------------||
||o-------------------------|-------------------------o||
||--------------------------|--------------------------||
||o-------------------------|-------------------------o||
||--------------------------|--------------------------||
||--9-6-0-9-6-0-9-6-0-9-6-0-|-9-6-0-9-6-0-9-6-0-2-1-0--||


 4/4                                   7/4
  PM--------------------|                   PM----|     PM----|
  E E E E E E E E   E E E E E E E E     Q   E E E E Q   E E E E Q   4x
|-----------------|-----------------||------------------------------||
|-----------------|-----------------||------------------------------||
|-----------------|-----------------||o----------------------------o||
|-3-3-3-3-3-3-3-3-|-3-3-3-3-3-3-3-3-||------------------------------||
|-2-2-2-2-2-2-2-2-|-2-2-2-2-2-2-2-2-||o----------------------------o||
|-1-1-1-1-1-1-1-1-|-1-1-1-1-1-1-1-1-||--7\----------7\----------4---||
|-0-0-0-0-0-0-0-0-|-0-0-0-0-0-0-0-0-||--6\--0-0-1-0-6\--0-0-1-0-3---||


   4/4
        PM    PM    PM    PM----------|     PM    PM    PM    PM|
    S S S S S S S S S S E S S S S   S S S S S S S S S S S S E S S
||--------------------------------|-------------------------------|
||--------------------------------|-------------------------------|
||o-------------------------------|-------------------------------|
||--------------------------------|-------------------------------|
||o-------------------------------|-------------------------------|
||--------------------------------|-------------------------------|
||--1s2-0-1s2-0-1s2-0-1s2-0-0-0-0-|-0-0-1s2-0-1s2-0-1s2-0-1s2-0-0-|


  PM|     PM    PM    PM    PM|
  S S S S S S S S S S S S E S S   E. E. E. E. E E
|-------------------------------|------------------||
|-------------------------------|------------------||
|-------------------------------|-----------------o||
|-------------------------------|------------------||
|-------------------------------|-------4--3------o||
|-------------------------------|-4--3--3--2--6----||
|-0-0-1s2-0-1s2-0-1s2-0-1s2-0-0-|-3--2--------5-0--||


      PM|   PM----|   PM|            PM|   PM----|
    E S S E S S S S E S S S +S     E S S E S S S S E S E.
||------------------------------|-------------------------|
||------------------------------|-------------------------|
||o-----------------------------|-------------------------|
||------------------------------|-------------------------|
||o-------4---------------------|-------------------------|
||------------------------------|-------------------------|
||--2-0-0---0-0-0-0-3-0-0-0-(0)-|-/5-0-3-2-0-0-0-0-3-0-0--|


                               2/4
  PM----|   PM----|   PM|
  S S S S E S S S S E S S S S   S S S S S E.
|-----------------------------|---------------||
|-----------------------------|---------------||
|-----------------------------|--------------o||
|-----------------------------|---------------||
|---------3-------------------|--------------o||
|-----------------------------|---------------||
|-1-1-1-1---0-0-0-0-3-0-0-0-0-|-3-3-3-3-3-2---||


   4/4                                                        2/4
     Q   Q   +E  Q  E    E. S E  Q   Q  E   Q   Q   +E  Q  E   S S S S S E.
||--------------------|-------------------|------------------|---------------||
||--------------------|-------------------|------------------|---------------||
||o-------------------|-------------------|------------------|--------------o||
||--------------------|-------------------|------------------|---------------||
||o------8---(8)------|----------8--------|-----7---(7)------|--------------o||
||--------------------|-------------------|------------------|---------------||
||--/6--(6)------7--4-|-/9--7p6-(6)--7--4-|-5--(5)------7--4-|-7-7-7-7-7-6\--||


           4/4
  PM--|       PM|   PM----|   PM|            PM|   PM----|
  |-3-|
  Q Q Q     E S S E S S S S E S S S +S     E S S E S S S S E S E.
|-------||------------------------------|-------------------------|
|-------||------------------------------|-------------------------|
|-------||o-----------------------------|-------------------------|
|-------||------------------------------|-------------------------|
|-5-4-3-||o-------4---------------------|-------------------------|
|-5-4-3-||------------------------------|-------------------------|
|-3-2-1-||--2-0-0---0-0-0-0-3-0-0-0-(0)-|-/5-0-3-2-0-0-0-0-3-0-0--|


  1.
                               2/4
  PM----|   PM----|   PM|
  S S S S E S S S S E S S S S   S S S S S E.
|-----------------------------|---------------||
|-----------------------------|---------------||
|-----------------------------|--------------o||
|-----------------------------|---------------||
|---------3-------------------|--------------o||
|-----------------------------|---------------||
|-1-1-1-1---0-0-0-0-3-0-0-0-0-|-3-3-3-3-3-2---||


  2.
 4/4                           2/4
  Gtr II
                                          <
  PM----|   PM----|   PM|
  S S S S E S S S S E S S S S   Q         Q
|-----------------------------|---------[12]----||
|-----------------------------|-----------------||
|-----------------------------|-----------------||
|-----------------------------|-----------------||
|---------3-------------------|-----------------||
|-----------------------------|-----------------||
|-1-1-1-1---0-0-0-0-3-0-0-0-0-|-----------------||
|
| Gtr III
| PM----|   PM----|   PM|
| S S S S E S S S S E S S S S   S S S S   S  E.
|-----------------------------|-----------------||
|-----------------------------|-----------------||
|-----------------------------|-----------------||
|-----------------------------|-----------------||
|---------3-------------------|-----------------||
|-----------------------------|-----------------||
|-1-1-1-1---0-0-0-0-3-0-0-0-0-|-3-3-3-3---3--2--||


 Guitar Break - Loomis
 4/4
  Gtrs II, V
  |----5----|  |-----6------| |----5----|  |-----6------|
  S S  S  S S  S  S S  S  S S S S  S  S S  S  S S  S  S S
|---------------------------------------------------------|
|-----------9h12p10p9-------------------9h12p10p9---------|
|--------10-----------10-------------10-----------10------|
|-0h9h12-----------------12p9-0h9h12-----------------12p9-|
|---------------------------------------------------------|
|---------------------------------------------------------|
|---------------------------------------------------------|
|
| Gtr III
| W
|---------------------------------------------------------|
|---------------------------------------------------------|
|---------------------------------------------------------|
|---------------------------------------------------------|
|---------------------------------------------------------|
|---------------------------------------------------------|
|-3-------------------------------------------------------|


   |------5-------|  |------6-------| |-----5-----|  |------6-------|
   S   S  S    S  S  S  S  S  S  S  S S  S  S  S  S  S  S  S  S  S  S
|----------------10h13p12p10---------------------13h16p15p13----------|
|-------------12-------------12---------------15-------------15-------|
|--0h=10h13---------------------13p10-0h13h16-------------------16p13-|
|---------------------------------------------------------------------|
|---------------------------------------------------------------------|
|---------------------------------------------------------------------|
|---------------------------------------------------------------------|
|
|                                     ~~
| +E        E        E        E       Q.                      E
|---------------------------------------------------------------------|
|---------------------------------------------------------------------|
|---------------------------------------------------------------------|
|---------------------------------------------------------------------|
|---------------------------------------------------------------------|
|---------------------------------------------------------------------|
|-(3)-------3--------2--------3s======6-----------------------2-------|


  |----5----|  |-----6------| |----5----|  |-----6------|
  S S  S  S S  S  S S  S  S S S S  S  S S  S  S S  S  S S
|---------------------------------------------------------|
|-----------9h12p10p9-------------------9h12p10p9---------|
|--------10-----------10-------------10-----------10------|
|-0h9h12-----------------12p9-0h9h12-----------------12p9-|
|---------------------------------------------------------|
|---------------------------------------------------------|
|---------------------------------------------------------|
|
| W
|---------------------------------------------------------|
|---------------------------------------------------------|
|---------------------------------------------------------|
|---------------------------------------------------------|
|---------------------------------------------------------|
|---------------------------------------------------------|
|-3-------------------------------------------------------|


   |------5-------|  |------6-------|  |---5----|  |----6-----|
   S   S  S  S    S  S  S  S  S  S  S  S S  S S S  S S S S  S S
|----------------10h13p12p10--------------------7h10p9p7---------|
|-----------12---------------12---------------9----------9-------|
|--0h=10h13---------------------13p10--0h7h10--------------10p7--|
|----------------------------------------------------------------|
|----------------------------------------------------------------|
|----------------------------------------------------------------|
|----------------------------------------------------------------|
|
|              PM---------|            ~~~
|  |-----------3-----------|
| +Q           Q           Q           Q.                E
|----------------------------------------------------------------|
|----------------------------------------------------------------|
|----------------------------------------------------------------|
|----------------------------------------------------------------|
|----------------------------------------------------------------|
|--------------5-----------4-------------------------------------|
|-(3)----------3-----------2----------/6-----------------2-------|


  |----5----|  |-----6------| |----5----|  |-----6------|
  S S  S  S S  S  S S  S  S S S S  S  S S  S  S S  S  S S
|---------------------------------------------------------|
|-----------9h12p10p9-------------------9h12p10p9---------|
|--------10-----------10-------------10-----------10------|
|-0h9h12-----------------12p9-0h9h12-----------------12p9-|
|---------------------------------------------------------|
|---------------------------------------------------------|
|---------------------------------------------------------|
|
| ~~~~~~~~~~~~~~~~~~~~~~~~~~~~~~~~~~~~~~~~~~~~~~~~~~~~~~~~~
| W
|---------------------------------------------------------|
|---------------------------------------------------------|
|---------------------------------------------------------|
|---------------------------------------------------------|
|---------------------------------------------------------|
|---------------------------------------------------------|
|-6-------------------------------------------------------|


   |------5-------|  |------6-------| |-----5-----|  |------6-------|
   S   S  S    S  S  S  S  S  S  S  S S  S  S  S  S  S  S  S  S  S  S
|----------------10h13p12p10---------------------13h16p15p13-----------|
|-------------12-------------12---------------15-------------15--------|
|--0h=10h13---------------------13p10-0h13h16-------------------16p13--|
|----------------------------------------------------------------------|
|----------------------------------------------------------------------|
|----------------------------------------------------------------------|
|----------------------------------------------------------------------|
|
|~~~~~      PM------|
| +E        E        E        E       Q.                      E
|----------------------------------------------------------------------|
|----------------------------------------------------------------------|
|----------------------------------------------------------------------|
|----------------------------------------------------------------------|
|----------------------------------------------------------------------|
|----------------------------------------------------------------------|
|-(6)-------6--------5--------6s======9-----------------------5--------|


  |----5----|  |-----6------| |----5----|  |-----6------|
  S S  S  S S  S  S S  S  S S S S  S  S S  S  S S  S  S S
|---------------------------------------------------------|
|-----------9h12p10p9-------------------9h12p10p9---------|
|--------10-----------10-------------10-----------10------|
|-0h9h12-----------------12p9-0h9h12-----------------12p9-|
|---------------------------------------------------------|
|---------------------------------------------------------|
|---------------------------------------------------------|
|
| ~~~~~~~~~~~~~~~~~~~~~~~~~~~~~~~~~~~~~~~~~~~~~~~~~~~~~~~~~
| W
|---------------------------------------------------------|
|---------------------------------------------------------|
|---------------------------------------------------------|
|---------------------------------------------------------|
|---------------------------------------------------------|
|---------------------------------------------------------|
|-6-------------------------------------------------------|


   |------5-------|  |------6-------| |---5----|  |----6-----|
   S   S  S  S    S  S  S  S  S  S  S S S  S S S  S S S S  S S
|----------------10h13p12p10-------------------7h10p9p7---------||
|-----------12---------------12--------------9----------9-------||
|--0h=10h13---------------------13p10-0h7h10--------------10p7--||
|---------------------------------------------------------------||
|---------------------------------------------------------------||
|---------------------------------------------------------------||
|---------------------------------------------------------------||
|
|~~~~~         PM---------|
|  |-----------3-----------|
| +Q           Q           Q          Q.                E
|---------------------------------------------------------------||
|---------------------------------------------------------------||
|---------------------------------------------------------------||
|---------------------------------------------------------------||
|---------------------------------------------------------------||
|--------------8-----------7------------------------------------||
|-(6)----------6-----------5----------9-----------------5-------||


    |----5----|  |-------6--------| |-------5-------|  |-------6--------|
    S S  S  S S  S  S   S  S  S   S S S    S    S   S  S  S   S  S  S   S
||------------------------------------------------------------------------|
||------------9h12p10p==9---------------------------9h12p10p==9-----------|
||o--------10-------------10-------------------10---------------10--------|
||--0h9h12-------------------12p==9-0h9h==12-----------------------12p==9-|
||o-----------------------------------------------------------------------|
||------------------------------------------------------------------------|
||------------------------------------------------------------------------|
|
|                PM--------------------------------------------------------
|   Q            S    S    S    S   S   S    S    S    S    S    S    S
||------------------------------------------------------------------------|
||------------------------------------------------------------------------|
||o-----------------------------------------------------------------------|
||------------------------------------------------------------------------|
||o-----------------------------------------------------------------------|
||--4---------------------------------------------------------------------|
||--3------------3----3----3----3---3---3----3----3----3----3----3----3---|


  |--------5--------|  |--------6---------| |-----5-----|  |------6-------|
  S  S    S    S    S  S  S    S  S  S    S S  S  S  S  S  S  S  S  S  S  S
|------------------10h13p12p==10-----------------------13h16p15p13-------------|
|-------------12-----------------12-----------------15-------------15----------|
|-0h10h==13-------------------------13p==10-0h13h16-------------------16p13----|
|------------------------------------------------------------------------------|
|------------------------------------------------------------------------------|
|------------------------------------------------------------------------------|
|------------------------------------------------------------------------------|
|
|--------------------------------------|
| S    S    S    S     S    S     S    S    Q              Q
|------------------------------------------------------------------------------|
|------------------------------------------------------------------------------|
|------------------------------------------------------------------------------|
|------------------------------------------------------------------------------|
|------------------------------------------------------------------------------|
|------------------------------------------------------------------------------|
|-3----3----3----3-----3----3-----3----3----6--------------3-------------------|


  |---5----|  |------6-------| |------5-------|  |------6-------|
  S S  S S S  S S   S S  S   S S S    S   S   S  S S   S S  S   S
|-----------------------------------------------------------------|
|----------8h11p9p==8-------------------------8h11p9p==8----------|
|--------9------------9-------------------9--------------9--------|
|-0h8h11----------------11p==8-0h8h==11--------------------11p==8-|
|-----------------------------------------------------------------|
|-----------------------------------------------------------------|
|-----------------------------------------------------------------|
|
|             PM---------------------------------------------------
| Q           S   S   S    S   S   S    S   S    S   S   S    S
|-----------------------------------------------------------------|
|-----------------------------------------------------------------|
|-----------------------------------------------------------------|
|-----------------------------------------------------------------|
|-----------------------------------------------------------------|
|-3---------------------------------------------------------------|
|-2-----------2---2---2----2---2---2----2---2----2---2---2----2---|


  |-------5-------|  |-------6--------| |-----5-----|  |------6-------|
  S S    S    S   S  S  S   S  S  S   S S  S  S  S  S  S  S  S  S  S  S
|-----------------9h12p11p==9----------------------12h15p14p12-------------|
|------------11---------------11----------------14-------------14----------|
|-0h9h==12-----------------------12p==9-0h12h15-------------------15p12----|
|--------------------------------------------------------------------------|
|--------------------------------------------------------------------------|
|--------------------------------------------------------------------------|
|--------------------------------------------------------------------------|
|
|-----------------------------------|
| S   S    S    S    S    S    S    S   Q              Q
|--------------------------------------------------------------------------|
|--------------------------------------------------------------------------|
|--------------------------------------------------------------------------|
|--------------------------------------------------------------------------|
|--------------------------------------------------------------------------|
|--------------------------------------------------------------------------|
|-2---2----2----2----2----2----2----2---5--------------2-------------------|


  |---5----|  |------6-------| |------5-------|  |------6-------|
  S S  S S S  S S   S S  S   S S S    S   S   S  S S   S S  S   S
|-----------------------------------------------------------------|
|----------7h10p8p==7-------------------------7h10p8p==7----------|
|--------8------------8-------------------8--------------8--------|
|-0h7h10----------------10p==7-0h7h==10--------------------10p==7-|
|-----------------------------------------------------------------|
|-----------------------------------------------------------------|
|-----------------------------------------------------------------|
|
|             PM---------------------------------------------------
| Q           S   S   S    S   S   S    S   S    S   S   S    S
|-----------------------------------------------------------------|
|-----------------------------------------------------------------|
|-----------------------------------------------------------------|
|-----------------------------------------------------------------|
|-----------------------------------------------------------------|
|-2---------------------------------------------------------------|
|-1-----------1---1---1----1---1---1----1---1----1---1---1----1---|


  |-------5-------|  |-------6--------| |-----5-----|  |------6-------|
  S S    S    S   S  S  S   S  S  S   S S  S  S  S  S  S  S  S  S  S  S
|-----------------8h11p10p==8----------------------11h14p13p11-------------|
|------------10---------------10----------------13-------------13----------|
|-0h8h==11-----------------------11p==8-0h11h14-------------------14p11----|
|--------------------------------------------------------------------------|
|--------------------------------------------------------------------------|
|--------------------------------------------------------------------------|
|--------------------------------------------------------------------------|
|
|-----------------------------------|
| S   S    S    S    S    S    S    S   Q              Q
|--------------------------------------------------------------------------|
|--------------------------------------------------------------------------|
|--------------------------------------------------------------------------|
|--------------------------------------------------------------------------|
|--------------------------------------------------------------------------|
|--------------------------------------------------------------------------|
|-1---1----1----1----1----1----1----1---4--------------1-------------------|


  |---5---| |------6------| |------5------| |------6------|
  S S S S S S S   S S S   S S S   S   S   S S S   S S S   S
|-----------------------------------------------------------|
|---------6h9p7p==6-----------------------6h9p7p==6---------|
|-------7-----------7-----------------7-------------7-------|
|-0h6h9---------------9p==6-0h6h==9-------------------9p==6-|
|-----------------------------------------------------------|
|-----------------------------------------------------------|
|-----------------------------------------------------------|
|
|           PM-----------------------------------------------
| Q         S   S   S   S   S   S   S   S   S   S   S   S
|-----------------------------------------------------------|
|-----------------------------------------------------------|
|-----------------------------------------------------------|
|-----------------------------------------------------------|
|-----------------------------------------------------------|
|-1---------------------------------------------------------|
|-0---------0---0---0---0---0---0---0---0---0---0---0---0---|


 1.
  |------5-------|  |------6-------| |-----5-----|  |------6-------|
  S S    S   S   S  S S   S S  S   S S  S  S  S  S  S  S  S  S  S  S
|----------------7h10p9p==7---------------------10h13p12p10--------------||
|------------9--------------9----------------12-------------12-----------||
|-0h7h==10--------------------10p==7-0h10h14-------------------13p10----o||
|------------------------------------------------------------------------||
|-----------------------------------------------------------------------o||
|------------------------------------------------------------------------||
|------------------------------------------------------------------------||
|
|--------------------------------|
| S   S    S   S    S   S   S    S   Q              Q
|------------------------------------------------------------------------||
|------------------------------------------------------------------------||
|-----------------------------------------------------------------------o||
|------------------------------------------------------------------------||
|-----------------------------------------------------------------------o||
|------------------------------------------------------------------------||
|-0---0----0---0----0---0---0----0---3--------------0--------------------||


  2.
  |------5-------|  |------6-------| |--------5--------|  |--------6---------|
  S S    S   S   S  S S   S S  S   S S  S    S    S    S  S  S    S  S  S    S
|----------------7h10p9p==7---------------------------10h13p12p==10------------|
|------------9--------------9--------------------12-----------------12---------|
|-0h7h==10--------------------10p==7-0h10h==14-------------------------13p==10-|
|------------------------------------------------------------------------------|
|------------------------------------------------------------------------------|
|------------------------------------------------------------------------------|
|------------------------------------------------------------------------------|
|
| PM----------------------------------------------------------------------------
| S   S    S   S    S   S   S    S   S    S    S    S     S    S     S    S
|------------------------------------------------------------------------------|
|------------------------------------------------------------------------------|
|------------------------------------------------------------------------------|
|------------------------------------------------------------------------------|
|------------------------------------------------------------------------------|
|------------------------------------------------------------------------------|
|-0---0----0---0----0---0---0----0---0----0----0----0-----0----0-----0----0----|


   ~~
   W
|-13-------------------------||
|-12-------------------------||
|----------------------------||
|----------------------------||
|----------------------------||
|----------------------------||
|----------------------------||
|
|----|   PM|   PM|   PM|
|  S S E S S E S S E S S E
|----------------------------||
|----------------------------||
|----------------------------||
|----------------------------||
|----------------------------||
|--2-2-2-2-2-2-2-2-2-2-2-2---||
|--0-0-0-0-0-0-0-0-0-0-0-0---||


   Guitar Solo - Loomis
     |--------6---------|  |--------6---------| |--------6---------|  |--------6---------|
     S  S    S  S  S    S  S  S    S  S  S    S S  S    S  S  S    S  S  S    S  S  S    S
||--14p10--------------10h14p10-----------------------------------10h14p10--------------10h=|
||----------12----12--------------12-------------------------12--------------12----12-------|
||o------------11--------------------11-------------------11--------------------11----------|
||--------------------------------------12-------------12-----------------------------------|
||o------------------------------------------14p9h14----------------------------------------|
||------------------------------------------------------------------------------------------|
||------------------------------------------------------------------------------------------|
|
|    S    S     S    S     S    S     S    S    S    S     S    S     S    S     S    S
||------------------------------------------------------------------------------------------|
||------------------------------------------------------------------------------------------|
||o-----------------------------------------------------------------------------------------|
||------------------------------------------------------------------------------------------|
||o-----------------------------------------------------------------------------------------|
||---7----7-----7----7-----7----7-----7----7----7----7-----7----7-----6----6-----6----6-----|
||------------------------------------------------------------------------------------------|


   |--------6---------|  |--------6---------|  |---------6----------|  |--------6---------|
   S  S    S  S  S    S  S  S    S  S  S    S  S  S     S  S  S     S  S  S    S  S  S    S
|-13p10--------------10h14p10--------------10h15p10----------------10h14p10--------------10h==|
|---------12----12--------------12----12---------------12----12---------------12----12--------|
|------------11--------------------11---------------------11---------------------11-----------|
|---------------------------------------------------------------------------------------------|
|---------------------------------------------------------------------------------------------|
|---------------------------------------------------------------------------------------------|
|---------------------------------------------------------------------------------------------|
|
|  S    S     S    S     S    S     S    S     S     S     S     S     S    S     S    S
|---------------------------------------------------------------------------------------------|
|---------------------------------------------------------------------------------------------|
|---------------------------------------------------------------------------------------------|
|---------------------------------------------------------------------------------------------|
|----------------------------------------------------------------------7----7-----7----7------|
|--7----7-----7----7-----9----9-----9----9----10----10----10----10----------------------------|
|---------------------------------------------------------------------------------------------|


   |-------6--------|  |--------6--------| |--------6--------|  |-------6--------|
   S S    S  S  S   S  S S    S  S  S    S S  S    S  S  S   S  S S    S  S  S   S
|-14p9--------------9h14p9-----------------------------------9h14p9--------------9h==|
|--------11----11------------11-------------------------11------------11----11-------|
|-----------11------------------11-------------------11------------------11----------|
|----------------------------------11-------------11---------------------------------|
|---------------------------------------13p9h13--------------------------------------|
|------------------------------------------------------------------------------------|
|------------------------------------------------------------------------------------|
|
|  S   S     S    S    S   S     S    S    S    S     S    S    S   S     S    S
|------------------------------------------------------------------------------------|
|------------------------------------------------------------------------------------|
|------------------------------------------------------------------------------------|
|------------------------------------------------------------------------------------|
|------------------------------------------------------------------------------------|
|------------------------------------------------------------------------------------|
|--7---7-----7----7----7---7-----7----7----7----7-----7----7----6---6-----6----6-----|


   |-------6--------|  |-------6--------|  |--------6---------|  |-------6--------|
   S S    S  S  S   S  S S    S  S  S   S  S S     S  S  S    S  S S    S  S  S   S
|-13p9--------------9h14p9--------------9h15p9----------------9h14p9--------------9h==|
|--------11----11------------11----11-------------11----11-------------11----11-------|
|-----------11------------------11-------------------11-------------------11----------|
|-------------------------------------------------------------------------------------|
|-------------------------------------------------------------------------------------|
|-------------------------------------------------------------------------------------|
|-------------------------------------------------------------------------------------|
|
|  S   S     S    S    S   S     S    S    S    S     S     S    S   S     S    S
|-------------------------------------------------------------------------------------|
|-------------------------------------------------------------------------------------|
|-------------------------------------------------------------------------------------|
|-------------------------------------------------------------------------------------|
|-------------------------------------------------------------------------------------|
|-------------------------------------------------------------------------------------|
|--7---7-----7----7----9---9-----9----9---10---10----10----10----7---7-----7----7-----|


   |-------6-------|  |-------6--------| |-------6--------|  |-------6-------|
   S S    S S  S   S  S S    S S  S    S S  S    S S  S   S  S S    S S  S   S
|-12p8-------------8h12p8---------------------------------8h12p8-------------8h==|
|--------10---10------------10-----------------------10------------10---10-------|
|-----------9------------------9-------------------9------------------9----------|
|--------------------------------10-------------10-------------------------------|
|-------------------------------------12p7h12------------------------------------|
|--------------------------------------------------------------------------------|
|--------------------------------------------------------------------------------|
|
|  S   S    S    S    S   S    S    S    S    S    S    S    S   S    S    S
|--------------------------------------------------------------------------------|
|--------------------------------------------------------------------------------|
|--------------------------------------------------------------------------------|
|--------------------------------------------------------------------------------|
|--------------------------------------------------------------------------------|
|--5---5----5----5----5---5----5----5----5----5----5----5----4---4----4----4-----|
|--------------------------------------------------------------------------------|


   |-------6-------|  |-------6-------|  |-------6-------|  |-------6-------|
   S S    S S  S   S  S S    S S  S   S  S S    S S  S   S  S S    S S  S   S
|-11p8-------------8h12p8-------------8h14p8-------------8h12p8-------------8h==|
|--------10---10------------10---10------------10---10------------10---10-------|
|-----------9------------------9------------------9------------------9----------|
|-------------------------------------------------------------------------------|
|-------------------------------------------------------------------------------|
|-------------------------------------------------------------------------------|
|-------------------------------------------------------------------------------|
|
|  S   S    S    S    S   S    S    S    S   S    S    S    S   S    S    S
|-------------------------------------------------------------------------------|
|-------------------------------------------------------------------------------|
|-------------------------------------------------------------------------------|
|-------------------------------------------------------------------------------|
|-------------------------------------------------------------------------------|
|--5---5----5----5----7---7----7----7----8---8----8----8----7---7----7----7-----|
|-------------------------------------------------------------------------------|


  1.
   |------6------|  |------6-------| |------6-------|  |------6------|
   S S   S S S   S  S S   S S S    S S  S   S S S   S  S S   S S S   S
|-12p7-----------7h12p7-----------------------------7h12p7-----------7h==|
|--------9---9------------9---------------------9------------9---9-------|
|----------9----------------9-----------------9----------------9---------|
|-----------------------------9-------------9----------------------------|
|---------------------------------11p7h11--------------------------------|
|------------------------------------------------------------------------|
|------------------------------------------------------------------------|
|
|  S   S   S   S    S   S   S   S    S    S   S   S    S   S   S   S
|------------------------------------------------------------------------|
|------------------------------------------------------------------------|
|------------------------------------------------------------------------|
|------------------------------------------------------------------------|
|------------------------------------------------------------------------|
|------------------------------------------------------------------------|
|--5---5---5---5----5---5---5---5----5----5---5---5----4---4---4---4-----|


   |------6------|  |------6------|  |------6------|  |------6------|
   S S   S S S   S  S S   S S S   S  S S   S S S   S  S S   S S S   S
|-10p7-----------7h12p7-----------7h13p7-----------7h12p7-----------7---||
|--------9---9------------9---9------------9---9------------9---9-------||
|----------9----------------9----------------9----------------9--------o||
|-----------------------------------------------------------------------||
|----------------------------------------------------------------------o||
|-----------------------------------------------------------------------||
|-----------------------------------------------------------------------||
|
|  S   S   S   S    S   S   S   S    S   S   S   S    S   S   S   S
|-----------------------------------------------------------------------||
|-----------------------------------------------------------------------||
|----------------------------------------------------------------------o||
|-----------------------------------------------------------------------||
|----------------------------------------------------------------------o||
|-----------------------------------------------------------------------||
|--5---5---5---5----7---7---7---7----8---8---8---8----5---5---5---5-----||


  2.
   |------6-------| |------6-------|   |--------6---------|  |--------6---------|
   S S   S S S    S S  S   S S S   S   S  S    S  S  S    S  S  S    S  S  S    S
|-12p7-----------------------------7-/16p12------------------------------------12--|
|--------9---------------------9--------------12--------------------------12-------|
|----------9-----------------9-------------------14--------------------14----------|
|------------9-------------9------------------------14--------------14-------------|
|----------------11p7h11---------------------------------12----12------------------|
|-----------------------------------------------------------12---------------------|
|----------------------------------------------------------------------------------|
|
|  S   S   S   S    S    S   S   S     S    S     S    S     S    S     S    S
|----------------------------------------------------------------------------------|
|----------------------------------------------------------------------------------|
|----------------------------------------------------------------------------------|
|----------------------------------------------------------------------------------|
|----------------------------------------------------------------------------------|
|----------------------------------------------------------------------------------|
|--5---5---5---5----5----5---5---5-----5----5-----5----5-----4----4-----4----4-----|


    |--------6---------|  |--------6---------|  |-------3-------|
    S  S    S  S  S    S  S  S    S  S  S    S  Q      Q        Q
|-/19p16--------------16h19p16--------------16-24-----19-------22-----||
|----------17----17--------------17----17----------------------22-----||
|-------------16--------------------16--------------------------------||
|---------------------------------------------------------------------||
|---------------------------------------------------------------------||
|---------------------------------------------------------------------||
|---------------------------------------------------------------------||
|
|   S    S     S    S     S    S     S    S     S S S    S S S    S S
|---------------------------------------------------------------------||
|---------------------------------------------------------------------||
|---------------------------------------------------------------------||
|---------------------------------------------------------------------||
|---------------------------------------------------------------------||
|---------------------------------------------------------------------||
|---5----5-----5----5-----7----7-----7----7-----8-8-8----8-5-5----5-5-||


 Re-Intro
  Tempo B Q=75
  Gtr V
                                  >
   ~~~~~~~~~~~~~~~~~~~~~~~~~~~~~~~~~~
   W                             +W
|-23------------------------|---(23)--------------------|
|-24------------------------|---(24)--------------------|
|---------------------------|---------------------------|
|---------------------------|---------------------------|
|---------------------------|---------------------------|
|---------------------------|---------------------------|
|---------------------------|---------------------------|
|
| Gtr II
|  Q  a  E  E +E  a  E  E E   a   Q   a  Q   Q  Q
|--0--0-(0)-0-(0)-0-(0)-0-0-|-0--(0)--0-(0)--0----------|
|--4--4h=5--4-(4)-4h=5--4-5-|-5s==7---7s=5---4--0-------|
|---------------------------|-------------------5-------|
|---------------------------|---------------------------|
|---------------------------|---------------------------|
|---------------------------|---------------------------|
|---------------------------|---------------------------|
|
| Gtr III
|                                                 |-3-|
|  Q     H              Q         Q      Q   Q  E S S S
|---------------------------|---------------------------|
|---------------------------|---------------------------|
|--------4------------------|---------------------------|
|--------4--------------5---|-----2------7---5----------|
|--2-----2--------------5---|-----2------7---5--3-------|
|--2----(2)-------------3---|-----0------5---3--3-------|
|--0----(0)-----------------|-------------------1-1-1-1-|


  W                  W
|-----------------|----------------------------------||
|-----------------|----------------------------------||
|-----------------|----------------------------------||
|-----------------|----------------------------------||
|-----------------|----------------------------------||
|-----------------|----------------------------------||
|-----------------|----------------------------------||
|
|                                 \1/   \1/   \4
|     ~~~                  ~~~~~
| Q  +H     E  E     Q    +Q     +S    +E.   +Q
|-------------<5>-|----------------------------------||
|-0--(0)----0-----|-<5>--(<5>)--(<5>)-(<5>)-(<5>)----||
|-4--(4)----4-----|----------------------------------||
|-----------------|----------------------------------||
|-----------------|----------------------------------||
|-----------------|----------------------------------||
|-----------------|----------------------------------||
|
| Q   H     Q        Q     Q      Q           E    E
|-----------------|----------------------------------||
|-----------------|----------------------------------||
|-----4-----------|----------------------------------||
|-----4-----5-----|--2-----7------5-----------5s==10-||
|-2---2-----5-----|--2-----7------5-----------5s==10-||
|-2--(2)----3-----|--0-----5------3-----------3s===8-||
|-0--(0)----------|----------------------------------||


 Verse 4
  Tempo C E.=150
 3/4
  Gtrs II, III
      PM--------------|       PM--|     PM--|
  E S S S S S S S S S S   E S S S S E S S S S
|-----------------------|---------------------|
|-----------------------|---------------------|
|-----------------------|---------------------|
|-----------------------|---------------------|
|-6-6-------------------|-7-7-------3-3-------|
|-7-7-------------------|-8-8-------5-5-------|
|-----0-0-0---0-0-0-0-0-|-----0-0-0-----0-0-0-|


      PM--------------|
                          |-3-|
  E S S S S S S S S S S   S S S S S S S S S S S S S
|-----------------------|-----------------------------|
|-----------------------|-----------------------------|
|-----------------------|-----------------------------|
|-----------------------|-----------------------------|
|-6-6-------------------|-3h6p3---6---3---------------|
|-7-7-------------------|-------5---5---2-5---2-------|
|-----0-0-0---0-0-0-0-0-|-------------------4---1-4---|


-----------------------------------------------
  E S S S S S S S S S S   E S S S S E S S S S
|-----------------------|---------------------|
|-----------------------|---------------------|
|-----------------------|---------------------|
|-----------------------|---------------------|
|-6-6-------------------|-7-7-------3-3-------|
|-7-7-------------------|-8-8-------5-5-------|
|-----0-0-0---0-0-0-0-0-|-----0-0-0-----0-0-0-|


 -----------------------------------------------|
  E S S S S S S S S S S   S S S S S S S S S S S S
|-----------------------|-------------------------|
|-----------------------|-------------------------|
|-----------------------|-------------------------|
|-----------------------|-------------------------|
|-2-2-------------------|-------------------------|
|-2-2-------------------|-7-8-8-8-5-8---8---8-----|
|-----0-0-0---0-0-0-0-0-|-------------7---5---4-0-|


      PM--------------|       PM--|     PM--|
  E S S S S S S S S S S   E S S S S E S S S S
|-----------------------|---------------------|
|-----------------------|---------------------|
|-----------------------|---------------------|
|-----------------------|---------------------|
|-6-6-------------------|-7-7-------3-3-------|
|-7-7-------------------|-8-8-------5-5-------|
|-----0-0-0---0-0-0-0-0-|-----0-0-0-----0-0-0-|


      PM--------------|
                          |-3-|
  E S S S S S S S S S S   S S S S S S S S S S S S S
|-----------------------|------------------------------|
|-----------------------|------------------------------|
|-----------------------|------------------------------|
|-----------------------|------------------------------|
|-6-6-------------------|-3h6p3---6---3----------------|
|-7-7-------------------|-------5---5---2-5---2--------|
|-----0-0-0---0-0-0-0-0-|-------------------4---1-4----|


-----------------------------------------------
  E S S S S S S S S S S   E S S S S E S S S S
|-----------------------|---------------------|
|-----------------------|---------------------|
|-----------------------|---------------------|
|-----------------------|---------------------|
|-6-6-------------------|-7-7-------3-3-------|
|-7-7-------------------|-8-8-------5-5-------|
|-----0-0-0---0-0-0-0-0-|-----0-0-0-----0-0-0-|


 -----------------------------------------------|
  E S S S S S S S S S S   S S S S S S S S S S S S
|-----------------------|-------------------------||
|-----------------------|-------------------------||
|-----------------------|-------------------------||
|-----------------------|-------------------------||
|-2-2-------------------|-------------------------||
|-2-2-------------------|-7-8-8-8-5-8---8---8-----||
|-----0-0-0---0-0-0-0-0-|-------------7---5---4-0-||


   Pre-Chorus
    PM-------------------------------------------------
    S S S S S S S S S S S S   S S S S S S S S S S S S
||--------------------------|-------------------------|
||--------------------------|-------------------------|
||o-------------------------|-------------------------|
||--3-----------------------|-3-----------------------|
||o-5-5-5-5-5-5-5-5-5-5-5-5-|-5-5-5-5-5-5-5-5-5-5-5-5-|
||--5-0-4-5-4-0-5-0-4-5-4-0-|-5-0-4-5-4-0-5-0-4-5-4-0-|
||--------------------------|-------------------------|


 -------------------------------------------------|
  S S S S S S S S S S S S   S S S S S S S S S S S S
|-------------------------|-----------------------------||
|-------------------------|-----------------------------||
|-------------------------|----------------------------o||
|-6-----------------------|-6---------------------------||
|-7-7-7-7-7-7-7-7-7-7-7-7-|-7-7-7-7-7-7-7-7-7-7-7-7----o||
|-7-0-6-7-6-0-7-0-6-7-6-0-|-7-0-6-7-6-0-7-0-6-7-6-0-----||
|-------------------------|-----------------------------||


 Outro Chorus
  Gtr V
  H.                            H.
|----------------------------|-----------------------------|
|----------------------------|-----------------------------|
|-9b11-----------------------|-12b14-----------------------|
|----------------------------|-----------------------------|
|-7b9------------------------|-10b12-----------------------|
|----------------------------|-----------------------------|
|----------------------------|-----------------------------|
|
| Gtrs II, III
| S    S S S S S S S S S S S    S    S S S S S S S S S S S
|----------------------------|-----------------------------|
|----------------------------|-----------------------------|
|----------------------------|-----------------------------|
|--------3-----3-----3-----3-|---------3-----3-----3-----3-|
|------5-----5-----5-----5---|-------5-----5-----5-----5---|
|-5--------4-----5-----0-----|--5--------4-----5-----0-----|
|----------------------------|-----------------------------|


   H.                            H.
|-----------------------------|-----------------------------|
|-----------------------------|-----------------------------|
|-11b13-----------------------|-14b16-----------------------|
|-----------------------------|-----------------------------|
|--9b11-----------------------|-12b14-----------------------|
|-----------------------------|-----------------------------|
|-----------------------------|-----------------------------|
|
|  S    S S S S S S S S S S S    S    S S S S S S S S S S S
|-----------------------------|-----------------------------|
|-----------------------------|-----------------------------|
|-----------------------------|-----------------------------|
|---------6-----6-----6-----6-|---------6-----6-----6-----6-|
|-------7-----7-----7-----7---|-------7-----7-----7-----7---|
|--7--------6-----7-----0-----|--7--------6-----7-----0-----|
|-----------------------------|-----------------------------|


   H.                            H.
|-----------------------------|-----------------------------|
|-----------------------------|-----------------------------|
|-12b14-----------------------|-----------------------------|
|-----------------------------|-----------------------------|
|-10b12-----------------------|-14b16-----------------------|
|-----------------------------|-----------------------------|
|-----------------------------|-----------------------------|
|
|  S    S S S S S S S S S S S    S    S S S S S S S S S S S
|-----------------------------|-----------------------------|
|-----------------------------|-----------------------------|
|-----------------------------|-----------------------------|
|---------3-----3-----3-----3-|---------3-----3-----3-----3-|
|-------5-----5-----5-----5---|-------5-----5-----5-----5---|
|--5--------4-----5-----0-----|--5--------4-----5-----0-----|
|-----------------------------|-----------------------------|


   H.                            H.
|-----------------------------|-----------------------------|
|-----------------------------|-----------------------------|
|-----------------------------|-----------------------------|
|-----------------------------|-----------------------------|
|-12b14-----------------------|-14b16-----------------------|
|-----------------------------|-----------------------------|
|-----------------------------|-----------------------------|
|
|  S    S S S S S S S S S S S    S    S S S S S S S S S S S
|-----------------------------|-----------------------------|
|-----------------------------|-----------------------------|
|-----------------------------|-----------------------------|
|---------6-----6-----6-----6-|---------6-----6-----6-----6-|
|-------7-----7-----7-----7---|-------7-----7-----7-----7---|
|--7--------6-----7-----0-----|--7--------6-----7-----0-----|
|-----------------------------|-----------------------------|


 Outro
  Gtrs II, III
    PM------|   PM------|     PM------|   PM        PM
                                              |-3-|
  S S S S S S S S S S S S   S S S S S S S S S S S S S
|-------------------------|---------------------------|
|-------------------------|---------------------------|
|-------------------------|---------------------------|
|-------------------------|---------------------------|
|-------------------------|---------------------------|
|-7-----------7-----------|-8-----------8---7-5h7p5---|
|---6-5-0-5-6---6-5-0-5-6-|---6-5-0-5-6---6---------6-|


    PM------|   PM------|      PM        PM  PM|   PM|
                                   |-3-|
  S S S S S S S S S S S S    S S S S S S S S S S S S S
|-------------------------|-------------------------------|
|-------------------------|-------------------------------|
|-------------------------|-------------------------------|
|-------------------------|-------------------------------|
|-------------------------|-------------------------------|
|-7-----------7-----------|-10---8-7h8p7---5-----3--------|
|---6-5-0-5-6---6-5-0-5-6-|----8---------8---7-5---5-3----|


  Gtr II
    PM------|   PM------|     PM------|   PM        PM
                                              |-3-|
  S S S S S S S S S S S S   S S S S S S S S S S S S S
|-------------------------|---------------------------|
|-------------------------|---------------------------|
|-------------------------|---------------------------|
|-------------------------|---------------------------|
|-------------------------|---------------------------|
|-7-----------7-----------|-8-----------8---7-5h7p5---|
|---6-5-0-5-6---6-5-0-5-6-|---6-5-0-5-6---6---------6-|
|
| Gtr III
|   PM------|   PM------|     PM------|   PM        PM
|                                             |-3-|
| S S S S S S S S S S S S   S S S S S S S S S S S S S
|-------------------------|---------------------------|
|-------------------------|---------------------------|
|-------------------------|---------------------------|
|-------------------------|---------------------------|
|-------------------------|---------------------------|
|-7-----------7-----------|-8-----------8---7-5h7p5---|
|---6-5-0-5-6---6-5-0-5-6-|---6-5-0-5-6---6---------6-|


                                                        2/4
    PM------|   PM------|      PM        PM  PM|   PM|
                                   |-3-|
  S S S S S S S S S S S S    S S S S S S S S S S S S S   Q  Q
|-------------------------|----------------------------|--------*|
|-------------------------|----------------------------|--------*|
|-------------------------|----------------------------|--------*|
|-------------------------|----------------------------|--------*|
|-------------------------|----------------------------|-2------*|
|-7-----------7-----------|-10---8-7h8p7---5-----3-----|-2------*|
|---6-5-0-5-6---6-5-0-5-6-|----8---------8---7-5---5-3-|-0------*|
|
|   PM------|   PM------|
| S S S S S S S S S S S S    S H                 S S S   Q  Q
|-------------------------|----------------------------|--------*|
|-------------------------|----------------------------|--------*|
|-------------------------|----------------------------|--------*|
|-------------------------|----------------------------|--------*|
|-------------------------|----------------------------|-2------*|
|-7-----------7-----------|-10-------------------3-----|-2------*|
|---6-5-0-5-6---6-5-0-5-6-|------------------------5-3-|-0------*|




--------------------------------------------------------------------------------


Duration Legend
---------------
W - whole; H - half; Q - quarter; E - 8th; S - 16th; T - 32nd; X - 64th; a - acciaccatura
+ - note tied to previous; . - note dotted; .. - note double dotted
Uncapitalized letters represent notes that are staccato (1/2 duration)
Irregular groupings are notated above the duration line
Duration letters will always appear directly above the note/fret number it represents the
duration for.  Duration letters with no fret number below them represent rests.  Multi-
bar rests are notated in the form Wxn, where n is the number of bars to rest for.  Low
melody durations appear below the staff

Tablature Legend
----------------
 h   - hammer-on
 p   - pull-off
 b   - bend
 pb  - pre-bend
 r   - bend release (if no number after the r, then release immediately)
 /\  - slide into or out of (from/to "nowhere")
 s   - legato slide
 S   - shift slide
 - natural harmonic
[n]  - artificial harmonic
n(n) - tapped harmonic
 ~   - vibrato
 tr  - trill
 T   - tap
 TP  - trem. picking
 PM  - palm muting
\n/  - tremolo bar dip; n = amount to dip
 \n  - tremolo bar down
 n/  - tremolo bar up
/n\  - tremolo bar inverted dip
 =   - hold bend; also acts as connecting device for hammers/pulls
 <> - volume swell (louder/softer)
 x   - on rhythm slash represents muted slash
 o   - on rhythm slash represents single note slash

Misc Legend
-----------
 |  - bar
||  - double bar
||o - repeat start
o|| - repeat end
*|  - double bar (ending)
 :  - bar (freetime)
 $  - Segno
 &  - Coda
Tempo markers -  = BPM(8/16=s8/s16), where s8 = swing 8ths, s16 = swing 16ths



            
            
Suggest correction
Creating personal tab
Creating personal tab
You can edit any tab online and save it as your Personal.

You can edit, replace or remove any tab part or add personal notes – all changes will be seen only by you.

Personal tabs can be accessed anytime from any device, even offline.
Learn more »
comments
print report bad tab
3 comments total.
+1 reply
Metal Militia 20 Jun 26, 2007 08:03 PM

Nice work, this tab is awesome.

-1 reply
johnn01 92 Aug 16, 2008 10:42 AM

hey man, great tab bbut i think that the acoustic solo in the beginning goes like

|-------------------------------------------------------------
|-------------------------------------------------------------
|-12\14-14-14-11-12-11\12\11-9-7\9-7\9-9-9-7-7-5-5-4\2-2-2-1-1
|-------------------------------------------------------------
|-------------------------------------------------------------
|-------------------------------------------------------------
|-----------------------------bvut thats wat i think. Great tab though man

0 reply
filthylittleboy 20 Apr 14, 2009 02:00 AM

This tab rules :D

guest
You may want to rate the tab now too:
select rating
Wanna post a correction for this tab? Suggest correction