Oops, an error
Loading. Please wait.

So Much Of Not Enough chords

version 1
version 1

Whole song

Interactive

1,080 views 1 this week
no commentswrite comment
1 2 3 4 5
2 more votes to show rating
add to favorites
×
Save as Personal and add changes to this tab that will be seen only by you. Learn more ›
×
You can save this tab as Personal to edit and correct it or add notes. All changes will be seen only by you. Learn more »
launch autoscroll
font size
0
reset
transpose
0
reset
simplify chords
display chords
guitar tuner
edit
Autoscroll
slow
fast
+/-
esc
set tempo
stop
Author
Difficulty
Strumming
There is no strumming pattern for this song yet. and get +5 IQ
Tjenare rocknördar! Nu har jag tagit ut ackorden på neverstores låt "So much of not
Dom är 100% korrekta. I vissa delar så lägger dom på ett Em. men det hör ni i låten. jag har
förklara detta med lite tabs här och där. samst intro taben. ni listar nog ut hur den 
spelas. Tack för mig, och vill ni har fler tabs så kan ni kontakta mig på
eller via myspace: www.myspace.com/chrismusi2

Hi there rock-geeks. I've uploaded a tab with the chords of the song So much of not
by the swedish band Neverstore. These chords are 100% correct, in some parts they add a Em.
you'll figure the strumming out. If you want more tabs or anything else you are more 
welcome to send me an email or visit myspace. Poprock__@hotmail.com / www.myspace.com/chrismusic2


F+
E
B
G
D4
A5
E2

C+
E
B
G6
D7
A4
E

Intro (clean)

E------------------|----------------------|
B-----2----3-------|-2-----2------2h3-----|
G---2---2----2---2-|---2-----2------------|  4x
D-0------------0---|-----0-----0----------|
A------------------|----------------------|
E------------------|----------------------|

Bm          D              G     G
I've never felt like this before
Bm          D              G       G
A bad feeling I've been trying to ignore
Bm	   D  	 	   G
So this is it, we won't give it
G
Another chance do you say.
Em 		F+
No explanation, only silence
G 		A
And it's tearing me apart


E-----------------|-----------------|-----------------|-----------------|
B-----------------|-----------------|-----------------|-----------------|
G-----------------|-----------------|-----------------|-----------------|
D-----------------|-----------------|-----------------|-----------------|X2
A-2-2-2-2-2-2-2-2-|-2-2-2-2-2-------|-5-5-5-5-5-5-5-5-|-5-5-5-5-5-7-7-7-|
E-----------------|-----------3-3-3-|-----------------|-----------------|


Bm		     G
So tell me, so tell me
D	   Em
What I've done
Bm	          G
I wonder, I wonder
D		    Em
How it got so wrong


Bm		    	    D		      Em
It hurts so bad, all those things you said
Bm			    D	    Em
I feel so cheap, used and untidy

Bm x4

Bm		D		G   G
It's all those small things adding up
Bm		D		G    G
I've been burning bridges, felt like giving up
Bm		D		G	G
The burning flame is not a the same, it never felt like fire
Em		F+		G		A
A tiny voice is whispering your name and I'm going insane


E-----------------|-----------------|-----------------|-----------------|
B-----------------|-----------------|-----------------|-----------------|
G-----------------|-----------------|-----------------|-----------------|
D-----------------|-----------------|-----------------|-----------------|X2
A-2-2-2-2-2-2-2-2-|-2-2-2-2-2-------|-5-5-5-5-5-5-5-5-|-5-5-5-5-5-7-7-7-|
E-----------------|-----------3-3-3-|-----------------|-----------------|

Bm		     G
So tell me, so tell me
D	       Em
What I've done
Bm	          G
I wonder, I wonder
D		    Em
How it got so wrong

Bm		    	    D		      Em
It hurts so bad, all those things you said
Bm			    D	    Em
I feel so cheap, used and untidy


G         G	   D         D
Everything I do, reminds me about you
C+       C+              Bm     Bm
Maybe we have to much to come out
G         G              D          D
I can not feel love, and I can not feel pain
C+	   C+                   Am    Am
Then of course is all the shame, and killing time
Am
It's still my favourite game.

D x4
Stick (dist.)

E------------------|----------------------|
B-----2----3-------|-2-----2------2-------|
G---2---2----2---2-|---2-----2------------|  4x
D-0------------0---|-----0-----0----------|
A------------------|----------------------|
E------------------|----------------------|


So tell me, (so tell me)

Bm		    	    D		      Em
It hurts so bad, all those things you said
Bm			    D	    Em
I feel so cheap, used and untidy              X2

Outro (dist.)

E-----------------|-----------------|-----------------|-----------------|
B-----------------|-----------------|-----------------|-----------------|
G-----------------|-----------------|-----------------|-----------------|
D-----------------|-----------------|-----------------|-----------------|X2
A-2-2-2-2-2-2-2-2-|-2-2-2-2-2-------|-5-5-5-5-5-5-5-5-|-5-5-5-5-5-7-7-7-|
E-----------------|-----------3-3-3-|-----------------|-----------------|

            
            
Suggest correction
Creating personal tab
Creating personal tab
You can edit any tab online and save it as your Personal.

You can edit, replace or remove any tab part or add personal notes – all changes will be seen only by you.

Personal tabs can be accessed anytime from any device, even offline.
Learn more »
Give kudos to tab author, rate the tab!
1 2 3 4 5
comments
print report bad tab
guest
You may want to rate the tab now too:
select rating
Wanna post a correction for this tab? Suggest correction