Oops, an error
Loading. Please wait.

Stay Forever bass

732 views 1 this week
2 commentsread comments
1 2 3 4 5
1 last vote to show rating
add to favorites
×
Save as Personal and add changes to this tab that will be seen only by you. Learn more ›
×
You can save this tab as Personal to edit and correct it or add notes. All changes will be seen only by you. Learn more »
launch autoscroll
font size
0
reset
guitar tuner
edit
Autoscroll
slow
fast
+/-
esc
set tempo
stop
Author
~~~~~~~~~~~~~~~~~~~~~~~~~~~~~~~~~~~~~~~~~~~~~~~~~~~~~~~~~~~~~~~~~~~~~~~~~~~~~~~
                          Neverstore - Stay Forever                            
~~~~~~~~~~~~~~~~~~~~~~~~~~~~~~~~~~~~~~~~~~~~~~~~~~~~~~~~~~~~~~~~~~~~~~~~~~~~~~~

|----------------------------|
|Album: Sevenhundred Sundays |
|Tabbed by: HittBull         |
|----------------------------|

Intro: 0.00
G|-----------------------|-----------------------|\
D|-----------------------|-----------------------| \
A|-----------------------|-----------------------|  \
E|-15-17-17-17--17-17-17-|-15-17-17-17--17-17-17-|   \
                                                      | Repeat 2 times
G|-----------------------|-------------------------| / 
D|-----------------------|-------------------------|/ 
A|-----------------------|-------------15-17-17-17-|
E|-15-17-17-17--17-17-17-|-15-17-17-17-------------|

                 Or play like this:

G|-----------------------|-----------------------|\
D|-----------------------|-----------------------| \
A|-10-12-12-12--12-12-12-|-10-12-12-12--12-12-12-|  \
E|-----------------------|-----------------------|   \
                                                      | Repeat 2 times
G|-----------------------|-------------------------| /
D|-----------------------|-------------10-12-12-12-|/
A|-10-12-12-12--12-12-12-|-10-12-12-12-------------|
E|-----------------------|-------------------------|

Intro part 2: 0.07
G|---------------------------------|---------------------------------|
D|---------------------------------|---------------------------------|
A|---------3-3-3-3---------3-3-----|---------3-3-3-3---------3-3-----|x2
E|-5-5-5-5---------1-1-1-1-----3-3-|-5-5-5-5---------1-1-1-1-----3-3-|

Verse part 1: 0.23
G|-------------------------------|
D|-----------Be-Quiet------------|
A|-------------------------------|
E|-------------------------------|

Verse part 2: 0.30
G|---------------------------------|---------------------------------|
D|---------------------------------|---------------------------------|
A|---------3-3-3-3---------3-3-----|---------3-3-3-3---------3-3-----|
E|-5-5-5-5---------1-1-1-1-----3-3-|-5-5-5-5---------1-1-1-1-----3-3-|

Bridge: 0.37
G|---------------------------------|
D|---------------------------------|
A|---------------------------------|
E|-1-1-1-1-1-1-1-1-1-1-1-1-3-3-3-3-|

Chorus: 0.41
G|---------------------------------|---------------------------------|
D|---------------------------------|---------------------------------|
A|-3-3-3-3-3-3-3-3-3-3-3-3-2-2-2-2-|-0-0-0-0-0-0-0-0-0-0-0-0---------|
E|---------------------------------|-------------------------1-1-1-1-|

G|---------------------------------|---------------------------------|
D|---------------------------------|---------------------------------|
A|-3-3-3-3-3-3-3-3-3-3-3-3-2-2-2-2-|-0-0-0-0-0-0-0-0-----------------|
E|---------------------------------|-----------------1-1-1-1-3-3-3-3-|

Verse Intro: 1.00
G|---------------------------------|---------------------------------|
D|---------------------------------|---------------------------------|
A|---------3-3-3-3---------3-3-----|---------3-3-3-3---------3-3-----|
E|-5-5-5-5---------1-1-1-1-----3-3-|-5-5-5-5---------1-1-1-1-----3-3-|

Verse part 1: 1.07
G|---------------------------------|---------------------------------|
D|---------------------------------|---------------------------------|
A|---------------------------------|---------------------------------|
E|---------------------------------|-5p3h5p3h5p3h5p3h5p3h5p3h5p3h5p3-|

Verse part 2: 1.15
G|---------------------------------|---------------------------------|
D|---------------------------------|---------------------------------|
A|---------3-3-3-3---------3-3-----|---------3-3-3-3---------3-3-----|
E|-5-5-5-5---------1-1-1-1-----3-3-|-5-5-5-5---------1-1-1-1-----3-3-|

Bridge: 1.21
G|---------------------------------|
D|---------------------------------|
A|---------------------------------|
E|-1-1-1-1-1-1-1-1-1-1-1-1-3-3-3-3-|

Chorus: 1.25
G|---------------------------------|---------------------------------|
D|---------------------------------|---------------------------------|
A|-3-3-3-3-3-3-3-3-3-3-3-3-2-2-2-2-|-0-0-0-0-0-0-0-0-0-0-0-0---------|
E|---------------------------------|-------------------------1-1-1-1-|

G|---------------------------------|---------------------------------|
D|---------------------------------|---------------------------------|
A|-3-3-3-3-3-3-3-3-3-3-3-3-2-2-2-2-|-0-0-0-0-0-0-0-0-----------------|
E|---------------------------------|-----------------1-1-1-1-3-3-3-3-|

Solo: 1.40                          1.48
G|---------------------------------|---------------------------------|
D|---------------------------------|---------------------------------|
A|---------------------------------|-3-3-3-3-3-3-3-3-3-3-3-3-3-3-3-3-|
E|---------------------------------|---------------------------------|

G|---------------------------------|---------------------------------|
D|---------------------------------|---------------------------------|
A|-3-3-3-3-3-3-3-3-3-3-3-3-3-3-3-3-|-3-3-3-3-3-3-3-3-2-2-2-2-2-2-2-2-|
E|---------------------------------|---------------------------------|

Chorus:
G|---------------------------------|---------------------------------|
D|---------------------------------|---------------------------------|
A|-3-3-3-3-3-3-3-3\----------------|-0-0-0-0-0-0-0-0-0-0-0-0---------|
E|---------------------------------|-------------------------1-1-1-1-|

G|---------------------------------|---------------------------------|
D|---------------------------------|---------------------------------|
A|-3-3-3-3-3-3-3-3-3-3-3-3-2-2-2-2-|-0-0-0-0-0-0-0-0-----------------|
E|---------------------------------|-----------------1-1-1-1-3-3-3-3-|

Verse Outro: 2.14
G|---------------------------------|---------------------------------|
D|---------------------------------|---------------------------------|
A|---------3-3-3-3---------3-3-----|---------3-3-3-3---------3-3-----|
E|-5-5-5-5---------1-1-1-1-----3-3-|-5-5-5-5---------1-1-1-1-----3-3-|

There you go! (:  Enjoy! And rate please! ;)

| /  slide up
| \  slide down
| h  hammer-on
| p  pull-off
| ~  vibrato
| +  harmonic
| x  Mute note

            
            
Suggest correction
Creating personal tab
Creating personal tab
You can edit any tab online and save it as your Personal.

You can edit, replace or remove any tab part or add personal notes – all changes will be seen only by you.

Personal tabs can be accessed anytime from any device, even offline.
Learn more »
Give kudos to tab author, rate the tab!
1 2 3 4 5
comments
print report bad tab
2 comments total.
0 reply
Ms.Iero-XO 10 Sep 05, 2007 03:44 AM

it was pretty good, but i dunno about the chorus... x)

0 reply
hittbull 87 Sep 06, 2007 10:25 AM

Yah... I'm not sure if it's right... :P But thanks ;)

guest
You may want to rate the tab now too:
select rating
Wanna post a correction for this tab? Suggest correction