Oops, an error
Loading. Please wait.

Dig My Own Grave intro tab

version 1
version 1

Intro

Whole song

1,862 views 1 this week
4 commentsread comments
1 2 3 4 5
x 3
add to favorites
×
Save as Personal and add changes to this tab that will be seen only by you. Learn more ›
×
You can save this tab as Personal to edit and correct it or add notes. All changes will be seen only by you. Learn more »
launch autoscroll
font size
0
reset
how to read this tab
guitar tuner
edit
Autoscroll
slow
fast
+/-
esc
set tempo
stop
Author
This is the second song of NFG's new EP album Tip of the Iceberg. I reckon that
this is the best song that is on the album. 

Tabbed by: Shane
Tuning: Drop D tuning

Intro:

e|------------------------------------------------------------------------|
B|------------------------------------------------------------------------|
G|------------------------------------------------------------------------|
D|--7-5-4-4--7-5-4-4------------------------------------------------------|
A|--7-5-4-4--7-5-4-4------------------------------------------------------|
D|--7-5-4-4--7-5-4-4--0-0-0-0--0--0-0--0-0-0-0--0--0-0--0-0-0-0--0--0-0---|
                   pm|-------|   |------------|   |------------|   |----|

e|------------------------------------------------------------------------|
B|------------------------------------------------------------------------|
G|------------------------------------------------------------------------|
D|--7-5-4-4--7-5-4-4------------------------------------------------------|
A|--7-5-4-4--7-5-4-4------------------------------------------------------|
D|--7-5-4-4--7-5-4-4--0-0-0-0--0--0-0--0-0-0-0--0--0-0--0-0-0-0--0--0-0---|
                   pm|-------|   |------------|   |------------|   |----|

e|------------------------------------------------------------------------|
B|------------------------------------------------------------------------|
G|------------------------------------------------------------------------|
D|--7-5-4-4--7-5-4-4--7-7-7-7---------------------------------------------|
A|--7-5-4-4--7-5-4-4--7-7-7-7---------------------------------------------|
D|--7-5-4-4--7-5-4-4--7-7-7-7---------------------------------------------|

e|------------------------------------------------------------------------|
B|------------------------------------------------------------------------|
G|------------------------------------------------------------------------|
D|--0-9-9-9-9-12-9-7-7-7--0-5-5-5-5-9-7-7-7-7-0---------------------------|
A|--0-9-9-9-9-12-9-7-7-7--0-5-5-5-5-9-7-7-7-7-0---------------------------|
D|--0-9-9-9-9-12-9-7-7-7--0-5-5-5-5-9-7-7-7-7-0---------------------------|

e|------------------------------------------------------------------------|
B|------------------------------------------------------------------------|
G|------------------------------------------------------------------------|
D|--0-9-9-9-9-12-7-5-5-5--0-5-5-5-5-9-7-7-7-7-0---------------------------|
A|--0-9-9-9-9-12-7-5-5-5--0-5-5-5-5-9-7-7-7-7-0---------------------------|
D|--0-9-9-9-9-12-7-5-5-5--0-5-5-5-5-9-7-7-7-7-0---------------------------|

Then the singing comes in: "Could it be that i've mistaken you..."

Please rate.

            
            
Suggest correction
Creating personal tab
Creating personal tab
You can edit any tab online and save it as your Personal.

You can edit, replace or remove any tab part or add personal notes – all changes will be seen only by you.

Personal tabs can be accessed anytime from any device, even offline.
Learn more »
Give kudos to tab author, rate the tab!
1 2 3 4 5
comments
print report bad tab
4 comments total. Showing first comments.
0 reply
Lt hilsdorf 51 Jun 03, 2008 08:49 AM

I think the first couple chords are wrong. I think it should be more along these lines instead:

e|----------------------------------------------------
B|----------------------------------------------------
G|----------------------------------------------------
D|--7-4-4-4---2-4-4-4---------------------------------
A|--7-4-4-4---2-4-4-4-------------0-------------------
D|--7-4-4-4---2-4-4-4----0-0-0-0--0--0-0--0-0-0-0-----
|-------| |------------|

PM PM

0 reply
smorl7 303 Jun 03, 2008 01:42 PM

If you listen closely you can hear that there are 3 chords he is playing and they are going down in notes. Thats just what I can hear anyway. Thanks

0 reply
watthewatto 10 Jul 02, 2008 01:02 AM

ur a sick as tabster!
NFG are thhe sickest band ever.

guest
You may want to rate the tab now too:
select rating
Wanna post a correction for this tab? Suggest correction