Oops, an error
Loading. Please wait.

Dressed To Kill bass

version 1
version 1

Whole song

Interactive

5,693 views 6 this week
2 commentsread comments
1 2 3 4 5
x 6
add to favorites
×
Save as Personal and add changes to this tab that will be seen only by you. Learn more ›
×
You can save this tab as Personal to edit and correct it or add notes. All changes will be seen only by you. Learn more »
launch autoscroll
font size
0
reset
guitar tuner
edit
Autoscroll
slow
fast
+/-
esc
set tempo
stop
Intro
G|----------------------------------------------------------------------------|
D|----------------------------------------------------------------------------|
A|2---------------------------------------------------------------------------|
E|--2--777777--666666--444444--0--2---777777--666666--444444--0--2------------|

Verse part 1
G|----------------------------------------------------------------------------|
D|----------------------------------------------------------------------------|
A|----------------------------------------------------------------------------|
E|--777777--666666--444444--222222---7777777--666666--444444--222222----------|

Verse part 2
G|----------------------------------------------------------------------------|
D|----------------------------------------------------------------------------|
A|----------------------------------------------------------------------------|
E|--7-7-7-7-6-9-6-4-4-4-4-7-4-4-2-2-2-2--7-7-7-7-6-9-6-4-4-4-4-7-4-4-2-2-2-2--|

Verse part 3
G|----------------------------------------------------------------------------|
D|----------------------------------------------------------------------------|
A|----------------------------------------------------------------------------|
E|-4-2--000000--4-2--000000--4-2--000000--4-2---------------------------------|

Chorus
G|----------------------------------------------------------------------------|
D|----------------------------------------------------------------------------|
A|----------------------------------------------------------------------------|
E|--777777--666666--444444--0--2---777777--666666--444444--0--2---------------|

G|----------------------------------------------------------------------------|
D|----------------------------------------------------------------------------|
A|----------------------------------------------------------------------------|
E|--777777--666666--444444--0--2---777777--666666--444444--0--2---------------|

Verse
G|----------------------------------------------------------------------------|
D|----------------------------------------------------------------------------|
A|----------------------------------------------------------------------------|
E|--777777--666666--444444--222222---7777777--666666--444444--222222----------|

Verse part 2
G|----------------------------------------------------------------------------|
D|----------------------------------------------------------------------------|
A|----------------------------------------------------------------------------|
E|--7-7-7-7-6-9-6-4-4-4-4-7-4-4-2-2-2-2--7-7-7-7-6-9-6-4-4-4-4-7-4-4-2-2-2-2--|

Verse part 3
G|----------------------------------------------------------------------------|
D|----------------------------------------------------------------------------|
A|----------------------------------------------------------------------------|
E|-4-2--000000--4-2--000000--4-2--000000--4-2---------------------------------|


Chorus
G|----------------------------------------------------------------------------|
D|----------------------------------------------------------------------------|
A|----------------------------------------------------------------------------|
E|--777777--666666--444444--0--2---777777--666666--444444--0--2---------------|

G|----------------------------------------------------------------------------|
D|----------------------------------------------------------------------------|
A|----------------------------------------------------------------------------|
E|--777777--666666--444444--0--2---777777--666666--444444--0--2---------------|

Bride(now right as the chorus ends u play this. Play the 0 part with how it sounds also)
G|----------------------------------------------------------------------------|
D|----------------------------------------------------------------------------|
A|----------------------------------------------------------------------------|
E|-4-----2-----4--6--7------00000000000--------0000000000------00000000000----|

G|----------------------------------------------------------------------------|
D|----------------------------------------------------------------------------|
A|----------------------------------------------------------------------------|
E|--0000000000000000000000----------------------------------------------------|

Chorus
G|----------------------------------------------------------------------------|
D|----------------------------------------------------------------------------|
A|----------------------------------------------------------------------------|
E|--777777--666666--444444--0--2---777777--666666--444444--0--2---------------|

G|----------------------------------------------------------------------------|
D|----------------------------------------------------------------------------|
A|----------------------------------------------------------------------------|
E|--777777--666666--444444--0--2---777777--666666--444444--0--2---------------|

Outro
G|----------------------------------------------------------------------------|
D|----------------------------------------------------------------------------|
A|----------------------------------------------------------------------------|
E|-4-----2-----4--6--7--------------------------------------------------------|

BY:GYM3CHAR

            
            
Suggest correction
Creating personal tab
Creating personal tab
You can edit any tab online and save it as your Personal.

You can edit, replace or remove any tab part or add personal notes – all changes will be seen only by you.

Personal tabs can be accessed anytime from any device, even offline.
Learn more »
comments
print report bad tab
2 comments total.
0 reply
Punk14uk 10 Jul 21, 2003 08:00 PM

have u had your ears glued together, or were
u just drunk?
no use at all :( sorry

0 reply
westchesterbass 31 Feb 28, 2008 03:57 PM

two things... #1--in drop d (dadg)and #2--verse pt 2 should be...

g|----------------------------------------------------------------|
d|----------------------------------------------------------------|
a|----------------------------------------------------------------|
d|7-7-7-7-7-7-7-7-6-6-6-9-9-9-6-6-4-4-4-7-7-7-4-4-2-2-2-2-2-2-2-2-|

guest
Wanna post a correction for this tab? Suggest correction