Oops, an error
Loading. Please wait.

Iris bass

version 1
version 1

Whole song

5,016 views 1 this week
4 commentsread comments
1 2 3 4 5
2 more votes to show rating
add to favorites
×
Save as Personal and add changes to this tab that will be seen only by you. Learn more ›
×
You can save this tab as Personal to edit and correct it or add notes. All changes will be seen only by you. Learn more »
launch autoscroll
font size
0
reset
guitar tuner
edit
Autoscroll
slow
fast
+/-
esc
set tempo
stop
Author
Difficulty
Song:Iris
Artist: New Found Glory
Ear Tabber: Christopher John Tiu
Age: 15

Intro:
|------------------------------------------------------------------------|
|------------------------------------------------------------------------|
|------------------------------------------------------------------------|2x
|----7777~---5555~--5-5---33333------------------------------------------|

Verse:
|------------------------------------------------------------------------|
|------------------------------------------------------------------------|
|----5~---7~---10~-------------------------------------------------------|3x
|---------------------7~---5~---3~---------------------------------------|

|------------------------------------------------------------------------|
|------------------------------------------------------------------------|
|----5~---7~---10~-------------------------------------------------------|
|---------------------7---7-5---5-3--------------------------------------|

Chorus:
|-------------------------------------|
|-------------------------------------|
|-------------------------------------|4x
|------7~---5~---3~-------------------|

Intro 2:
|------------------------------------------------------------------------|
|------------------------------------------------------------------------|
|------------------------------------------------------------------------|2x
|----7777~---5555~--5-5---33333------------------------------------------|

Verse 2:
|------------------------------------------------------------------------|
|------------------------------------------------------------------------|
|----5~---7~---10~-------------------------------------------------------|
|---------------------7~---5~---3~---------------------------------------|

|------------------------------------------------------------------------|
|------------------------------------------------------------------------|
|----5~---7~---10~-------------------------------------------------------|
|---------------------7---7-5---5-3--------------------------------------|

Chorus:
|-------------------------------------|
|-------------------------------------|
|-------------------------------------|4x
|------7~---5~---3~-------------------|

Adlib:
|------------------------------------------------------------------------|
|------------------------------------------------------------------------|
|------5555---4444---4-5---10--9--10p9---5-------------------------------|2x
|------------------------------------------------------------------------|

|----------------------------------------|
|----------------------------------------|
|------5555---4444---4-------------------|
|----------------------------------------|

|----------------------------------------------------|
|----------------------------------------------------|
|----------------------------------------------------|
|----333333---222222---333333---777777---------------|

|----------------------------------------------------|
|----------------------------------------------------|
|----------------------------------------------------|
|----333333---222222s777777777777--------------------|

(silent)
|------------------------------------------------------------------------|
|------------------------------------------------------------------------|
|----5~---7~---10~----------------------5--------------------------------|
|---------------------7~---5~---3~---------------------------------------|

Chorus:
|-------------------------------------|
|-------------------------------------|
|-------------------------------------|4x
|------7~---5~---3~-------------------|

Outro:
|-------------------------------------|
|-------------------------------------|
|-------------------------------------|4x
|------7~---5~---3~-------------------|

--------------------------------End-------------------------------

Enjoy  ^_~............ This is For my girlfriend!! Luv U Pam!!!! :D


Genome Band:
|---Vocals: ?????? Trying to find one... Apply na!!!--->
.........................................................................
|---Lead Guitar(gtr.2): Charliemagne Uy--->
.........................................................................
|---Rhythm Guitar(gtr.1) : Christopher Tiu--->
.........................................................................
|---Bass Guitar: Ryns Lable--->
.........................................................................
|---Keyboards: Jessa Dillera--->
.........................................................................
|---Drums: Gesster Ortega--->
.........................................................................







            
            
Suggest correction
Creating personal tab
Creating personal tab
You can edit any tab online and save it as your Personal.

You can edit, replace or remove any tab part or add personal notes – all changes will be seen only by you.

Personal tabs can be accessed anytime from any device, even offline.
Learn more »
Give kudos to tab author, rate the tab!
1 2 3 4 5
comments
print report bad tab
4 comments total. Showing first comments.
0 reply
chrisjenks 2,712 Aug 12, 2008 05:26 AM

it's ok, not perfect.

i think the intro is more like this:

Intro:
|---------------------------------|
|---------------------------------|
|---------------------------5555--|2x
|-77777755-5777---33333322-2------|

and also i think he strums the notes in the chorus

i hope you agree

+1 reply
genome619 166 Aug 23, 2008 07:21 PM

Oh Thanks!!!!~ ^_^

0 reply
genome619 166 Aug 23, 2008 07:22 PM

Thanks For the correction!!~ =)

guest
You may want to rate the tab now too:
select rating
Wanna post a correction for this tab? Suggest correction