Oops, an error
Loading. Please wait.

Love And Pain tab

version 1
version 1

Whole song

Interactive

863 views 3 this week
no commentswrite comment
1 2 3 4 5
3 more votes to show rating
add to favorites
×
Save as Personal and add changes to this tab that will be seen only by you. Learn more ›
×
You can save this tab as Personal to edit and correct it or add notes. All changes will be seen only by you. Learn more »
launch autoscroll
font size
0
reset
how to read this tab
guitar tuner
edit
Autoscroll
slow
fast
+/-
esc
set tempo
stop
INTRO LEAD 
e|------------------------------------------------|
B|--------12--------12------------9---------------|
G|-----9----------9--------11--9------11--9-------|
D|---9----------9---------------------------9-----|
A|------------------------------------------------|
E|------------------------------------------------|

INTRO RHYTHM
e|---------------------------|
B|---------------------------|
G|---------------6-6-6-6-6-6-|
D|--2-2-2-2-2-2--6-6-6-6-6-6-|
A|--2-2-2-2-2-2--4-4-4-4-4-4-|
E|--0-0-0-0-0-0--------------|

the next part is the same you play the rhythm part first than over top
the lead is played.

the chorus then goes like this

e|-----------------------|
B|-----------------------|
G|-------2222-6666-4444--|
D|-2222--2222-6666-4444--|
A|-2222--0000-4444-2222--|
E|-0000------------------|

then repeat 

breakdown part
LEAD
e|-------------------------------------------------------------|
B|---------------------------------9-----9---------------------|
G|---9-8----9-8----11-9----11-9------9-----9----11-9---11-9----|
D|-------9-------9------9-------9------9-----9-------9------9--|
A|-------------------------------------------------------------|
E|-------------------------------------------------------------|
     . . .  . .  .  . . .   . . .  . . . . . .   . . .  . . .
the first 2 times are palm muted then the next are not 
RHYTHM
e|----------------------------------|
B|----------------------------------|
G|--666--6--888--8--444--4--222--2--|
D|--666--6--888--8--444--4--222--2--|
A|--444--4--666--6--222--2--000--0--|
E|----------------------------------|
    ...     ...     ...     ...
the rhythm part sounds alright I don't know it for 100% sure though 
anyways you play that like the lead palm muted at first then not muted

before the chorus you play this as a build up for the rhythm lead plays the same as before

e|---------------------|
B|---------------------|
G|----------444444-----|
D|--444444--444444-----|
A|--444444--222222-----|
E|--222222-------------|

then goes back to the chorus and play that a couple of times 

ENDING LEAD
e|-----------------------------|
B|------12-----12-----12--12/--|
G|----9------9------9------9/--|
D|--9------9------9--------9/--|
A|-----------------------------|
E|-----------------------------|
ENDING RHYTHM
e|---------------------|
B|---------------------|
G|---------------------|
D|--222--222--222--2---|
A|--222--222--222--2---|
E|--000--000--000--0---|

            
            
Suggest correction
Creating personal tab
Creating personal tab
You can edit any tab online and save it as your Personal.

You can edit, replace or remove any tab part or add personal notes – all changes will be seen only by you.

Personal tabs can be accessed anytime from any device, even offline.
Learn more »
Give kudos to tab author, rate the tab!
1 2 3 4 5
comments
print report bad tab
guest
You may want to rate the tab now too:
select rating
Wanna post a correction for this tab? Suggest correction