Oops, an error
Loading. Please wait.

Make It Right tab

686 views 1 this week
1 commentread comment
1 2 3 4 5
2 more votes to show rating
add to favorites
×
Save as Personal and add changes to this tab that will be seen only by you. Learn more ›
×
You can save this tab as Personal to edit and correct it or add notes. All changes will be seen only by you. Learn more »
launch autoscroll
font size
0
reset
how to read this tab
guitar tuner
edit
Autoscroll
slow
fast
+/-
esc
set tempo
stop
Author
-------------------------------------------------------------------------------
                             Make It Right - New Found Glory
-------------------------------------------------------------------------------
Tabbed by: bloodred16

This is one of three UK Bonus tracks off the up-coming album "Coming Home"

Apart from Riff B in the Interlude, i reckon this is pretty close! So Enjoi it,
it's one of the best tracks off the album!

Tuning: Standard (EADGBe)

Intro
 
Gtr. 1
  Rhy. Fig. 1                                End Rhy. Fig. 1 (x2)
e|---------------------------------------------------------------------------|
B|---------------------------------------------------------------------------|
G|------------------------------9--9-9--9-9-9--7--7-7--7-7-7-----------------|
D|4--4-4--4-4-4--7--7-7--7-7-7--9--9-9--9-9-9--7--7-7--7-7-7-----------------|
A|4--4-4--4-4-4--7--7-7--7-7-7--7--7-7--7-7-7--5--5-5--5-5-5-----------------|
E|2--2-2--2-2-2--5--5-5--5-5-5-----------------------------------------------|

Gtr. 2
  Riff A                                                      End Riff A (x2)
e|---------------------------------------------------------------------------|
B|---------------------------------------------------------------------------|
G|11-11-11-11--11--11-11--9--------------------------------------------------|
D|--------------------------11-11-11--11--11-11--9-7-7--11--7----------------|
A|-------------------------------------------------------------9-9-9-7-7-7-7-|
E|---------------------------------------------------------------------------|


Verse

"Focus on me, there is more to see..."

Gtr. 1
e|---------------------------------------------------------------------------|
B|---------------------------------------------------------------------------|
G|---------------------------------------------------------------------------|
D|4--------------------------------------------------------------------------|
A|4--------------------------------------------------------------------------|
E|2--------------------------------------------------------------------------|
  |----------------

Gtr. 2
e|---------------------------------------------------------------------------|
B|---------------------------------------------------------------------------|
G|---------------------------------------------------------------------------|
D|---------------------------------------------------------------------------|
A|9--------------------------------------------------------------------------|
E|---------------------------------------------------------------------------|
  |----------------
 
"I'll prove them wrong..."

Gtr. 2 - this is played about 4 times but it's very quite in the song and sounds
         muffled.
e|---------------------------------------------------------------------------|
B|---------------------------------------------------------------------------|
G|---------------------------------------------------------------------------|
D|14p11----------------------------------------------------------------------|
A|---------------------------------------------------------------------------|
E|---------------------------------------------------------------------------|

Chorus - i think i can hear a lead guitar part in the chorus, but i can't make it
         out, so i'm putting Guitar 1 & 2 as playing the same thing.

"Every mistake I make..."

Gtr. 1 & 2
         Rhy. Fig. 2                                         Rhy. Fig. 2 (x4)
e|---------------------------------------------------------------------------|
B|---------------------------------------------------------------------------|
G|---------------------------------------------------------------------------|
D|x-x-x--4-4-4-4-4-4-4-4--7-7-7-7-7-7-7-7--7-7-7-7-7-7-7-7-7-7-7-7-7-7-7-7---|
A|x-x-x--4-4-4-4-4-4-4-4--7-7-7-7-7-7-7-7--5-5-5-5-5-5-5-5-5-5-5-5-5-5-5-5---|
E|x-x-x--2-2-2-2-2-2-2-2--5-5-5-5-5-5-5-5------------------------------------|

Verse - Starts off the same as the first verse. 

"I'll pull them out one by one..."

Gtr. 2
  |---Fill A---|
e|---------------------------------------------------------------------------|
B|---------------------------------------------------------------------------|
G|---------------------------------------------------------------------------|
D|9p7-7-11-------------------------------------------------------------------|
A|----------9--7-------------------------------------------------------------|
E|---------------------------------------------------------------------------|

"I don't need it all..."

Gtr. 2 - played about three times, Fill A is played a few times after this part
         as well, just listen really carefully for where and when.
e|---------------------------------------------------------------------------|
B|---------------------------------------------------------------------------|
G|---------------------------------------------------------------------------|
D|14p11----------------------------------------------------------------------|
A|---------------------------------------------------------------------------|
E|---------------------------------------------------------------------------|

Chorus - Gtr. 1 & 2 - Rhy. Fig. 2 (x4)

Interlude

Gtr. 2 - something like this right at the start before it's just bass. Just play
         around with it.
e|---------------------------------------------------------------------------|
B|---------------------------------------------------------------------------|
G|14p13h14p13h14p13----------------------------------------------------------|
D|---------------------------------------------------------------------------|
A|---------------------------------------------------------------------------|
E|---------------------------------------------------------------------------|

After the bass.

Gtr. 1
  Rhy. Fig. 3
e|---------------------------------------------------------------------------|
B|---------------------------------------------------------------------------|
G|---------------------------------------------------------------------------|
D|11-11-11--11-11-11--11-11---------------------9-9-9--9-9-9--9-9------------|
A|-9--9--9---9--9--9---9--9--7-7-7--7-7-7--7-7--7-7-7--7-7-7--7-7------------|
E|---------------------------5-5-5--5-5-5--5-5-------------------------------|
 
    End Rhy. Fig. 3 (x2)
e|---------------------------------------------------------------------------|
B|---------------------------------------------------------------------------|
G|---------------------------------------------------------------------------|
D|7-7-7--7-7-7--7-7----------------------------------------------------------|
A|5-5-5--5-5-5--5-5----------------------------------------------------------|
E|---------------------------------------------------------------------------|

Gtr. 2 - Riff A (x2) (played with Rhy. Fig. 3)

Then

Gtr. 1 - Same as the intro, just different rythm pattern.
  Rhy. Fig. 4                                                End Rhy. Fig. 4 (x2)
e|---------------------------------------------------------------------------|
B|---------------------------------------------------------------------------|
G|---------------------------------------------------------------------------|
D|--------------------------------------9-9-9--9-9-9--9-9--7-7-7--7-7-7--7-7-|
A|4-4-4--4-4-4--4-4--7-7-7--7-7-7--7-7--7-7-7--7-7-7--7-7--5-5-5--5-5-5--5-5-|
E|2-2-2--2-2-2--2-2--5-5-5--5-5-5--5-5---------------------------------------|

Gtr. 2 - Riff B - Played with Rhy. Fig. 4
e|---------------------------------------------------------------------------|
B|---------------------------------------------------------------------------|
G|------------9-9--------9--11-9-9-9----------------------11-11-11--11-11-11-|
D|6-6-6-7-7-7-----6-6-7--------------11-9------------------------------------|
A|----------------------------------------9-9-9-9-9-9-9-9--------------------|
E|---------------------------------------------------------------------------|

                                                          End Riff B
e|---------------------------------------------------------------------------|
B|---------------------------------------------------------------------------|
G|11-11--11-11-11--11-11-11--------------------------------------------------|
D|---------------------------11-9--9-9-9--9-9-9--9-9--9-9-9--x-x-x-x---------|
A|-----------------------------------------------------------x-x-x-x---------|
E|---------------------------------------------------------------------------|

Chorus - Gtr. 1 & 2 - Rhy. Fig. 2 (x5)

Ending

Gtr. 1
e|----------------------------------------------------------------------------|
B|----------------------------------------------------------------------------|
G|----------------------------------------------------------------------------|
D|---------------------------------------------------------------------------4|
A|-------------------------------------------------------------------4-4-4-4-4|
E|-------------------------------------------------------------------2-2-2-2-2|
                                                                     PM----|

Gtr. 2
e|----------------------------------------------------------------------------|
B|----------------------------------------------------------------------------|
G|11-11-11--11-11-11--11-11--9------------------------------------------------|
D|-----------------------------11-11--11-11-11--11-11--9-7-7--11--9-----------|
A|-------------------------------------------------------------------9-9-9-9-9|
E|----------------------------------------------------------------------------|
                                                                     PM----|

| h  hammer-on
| p  pull-off
|PM-| Palm Mute
| x  Mute note
| |-- Let note ring
===============================================================================

            
            
Suggest correction
Creating personal tab
Creating personal tab
You can edit any tab online and save it as your Personal.

You can edit, replace or remove any tab part or add personal notes – all changes will be seen only by you.

Personal tabs can be accessed anytime from any device, even offline.
Learn more »
Give kudos to tab author, rate the tab!
1 2 3 4 5
comments
print report bad tab
1 comment total.
0 reply
Lt hilsdorf 51 May 17, 2007 06:06 PM

Very nice and complete

Sound just like the song 5/5

guest
You may want to rate the tab now too:
select rating
Wanna post a correction for this tab? Suggest correction