Oops, an error
Loading. Please wait.

On My Mind tab

version 1
version 1

Whole song

Interactive

Video

10,211 views 1 this week
4 commentsread comments
1 2 3 4 5
x 7
add to favorites
×
Save as Personal and add changes to this tab that will be seen only by you. Learn more ›
×
You can save this tab as Personal to edit and correct it or add notes. All changes will be seen only by you. Learn more »
launch autoscroll
font size
0
reset
how to read this tab
guitar tuner
edit
Autoscroll
slow
fast
+/-
esc
set tempo
stop
Author
On My Mind
New Found Glory
Coming Home


INTRO

Guitar One
e|-0-0-0-0-12-11------0----------------|
B|-9-9-9-0--0--0-/14-14-14\----11/12\9-|
G|--------------------------11---------|
D|-------------------------------------|
A|-------------------------------------|
E|-------------------------------------|
Guitar Two
e|-------------------------------------|
B|-------------------------------------|
G|-------------------------------------|
D|-----------------------------------2-|
A|-----------------------------------2-|
E|-----------------------------------0-|

Guitar One
e|-0-0-0-0-12-11------0----------------|
B|-9-9-9-0--0--0-/14-14-14\----11/12\9-|
G|--------------------------11---------|
D|-------------------------------------|
A|-------------------------------------|
E|-------------------------------------|
Guitar Two
e|-------------------------------------|
B|-------------------------------------|
G|-------------------------------------|
D|-2-----------------------------------|
A|-2-----------------------------------|
E|-0-----------------------------------|


VERSE ONE

Guitar One
e|-0-0-000---0-0-000-0-0-000-0-0-000-|
B|-9-9-999-7/9-9-999-7-7-777-5-5-555-|
G|-----------------------------------|
D|-----------------------------------|
A|-----------------------------------|
E|-----------------------------------|
Guitar Two
e|-----------------------------------|
B|-----------------------------------|
G|-----------6-6-666-4-4-444-2-2-222-|
D|-2-2-222---6-6-666-4-4-444-2-2-222-|
A|-2-2-222---4-4-444-2-2-222-0-0-000-|
E|-0-0-000---------------------------|

Guitar One
e|-0-0-000---0-0-000-0-0-000-0-0----7\4-|
B|-9-9-999-7/9-9-999-7-7-777-5-5-5/7----|
G|--------------------------------------|
D|--------------------------------------|
A|--------------------------------------|
E|--------------------------------------|
Guitar Two
e|--------------------------------------|
B|--------------------------------------|
G|-----------6-6-666-4-4-444-2-2-222----|
D|-2-2-222---6-6-666-4-4-444-2-2-222----|
A|-2-2-222---4-4-444-2-2-222-0-0-000----|
E|-0-0-000------------------------------|

Guitar One
e|-0-0-000---0-0-000-0-0-000-0-0-000-|
B|-9-9-999-7/9-9-999-7-7-777-5-5-555-|
G|-----------------------------------|
D|-----------------------------------|
A|-----------------------------------|
E|-----------------------------------|
Guitar Two
e|-----------------------------------|
B|-----------------------------------|
G|-----------6-6-666-4-4-444-2-2-222-|
D|-2-2-222---6-6-666-4-4-444-2-2-222-|
A|-2-2-222---4-4-444-2-2-222-0-0-000-|
E|-0-0-000---------------------------|

Guitar One
e|-0-0-000---0-0-000-0-0-000-0-0-00x-|
B|-9-9-999-7/9-9-999-7-7-777-5-5-55x-|
G|-----------------------------------|
D|-----------------------------------|
A|-----------------------------------|
E|-----------------------------------|
Guitar Two
e|-----------------------------------|
B|-----------------------------------|
G|-----------6-6-666-4-4-444-2-2-22x-|
D|-2-2-222---6-6-666-4-4-444-2-2-22x-|
A|-2-2-222---4-4-444-2-2-222-0-0-00x-|
E|-0-0-000---------------------------|


PRE-CHORUS

Guitar One
e|----------------------|
B|----------------------|
G|----------------------|
D|-4-4x-6-6x-7-77-x77-7-|
A|-4-4x-6-6x-7-77-x77-7-|
E|-2-2x-4-4x-5-55-x55-5-|
Guitar Two
e|----------------------|
B|----------------------|
G|----------------------|
D|-4-4x-6-6x-7-77-x77-7-|
A|-4-4x-6-6x-7-77-x77-7-|
E|-2-2x-4-4x-5-55-x55-5-|

Guitar One
e|-------------------|
B|-------------------|
G|-------------------|
D|-4-4x-6-6x-7-7-7-7-|
A|-4-4x-6-6x-7-7-7-7-|
E|-2-2x-4-4x-5-5-5-5-|
Guitar Two
e|-------------------|
B|-------------------|
G|-------------------|
D|-4-4x-6-6x-7-7-7-7-|
A|-4-4x-6-6x-7-7-7-7-|
E|-2-2x-4-4x-5-5-5-5-|


CHORUS

Guitar One
e|------------------------------------|
B|------------------------------------|
G|---------6-66-66x----------6-66-66x-|
D|-2-2-22x-6-66-66x-2-22-22x-6-66-66x-|
A|-2-2-22x-4-44-44x-2-22-22x-4-44-44x-|
E|-0-0-00x----------0-00-00x----------|
Guitar Two
e|------------------------------------|
B|------------------------------------|
G|---------6-66-66x----------6-66-66x-|
D|-2-2-22x-6-66-66x-2-22-22x-6-66-66x-|
A|-2-2-22x-4-44-44x-2-22-22x-4-44-44x-|
E|-0-0-00x----------0-00-00x----------|

Guitar One
e|-------------------------------------|
B|-------------------------------------|
G|----------6-66-66x----------6-66-66x-|
D|-2-22-22x-6-66-66x-2-22-22x-6-66-66x-|
A|-2-22-22x-4-44-44x-2-22-22x-4-44-44x-|
E|-0-00-00x----------0-00-00x----------|
Guitar Two
e|-------------------------------------|
B|-------------------------------------|
G|----------6-66-66x----------6-66-66x-|
D|-2-22-22x-6-66-66x-2-22-22x-6-66-66x-|
A|-2-22-22x-4-44-44x-2-22-22x-4-44-44x-|
E|-0-00-00x----------0-00-00x----------|


MAIN RIFF

Guitar One
e|---0-0-0-0-12-11------0----------------|
B|---9-9-9-0--0--0-/14-14-14\----11/12\9-|
G|----------------------------11---------|
D|---------------------------------------|
A|---------------------------------------|
E|---------------------------------------|
Guitar Two
e|---------------------------------------|
B|---------------------------------------|
G|---------------------------------------|
D|-2-2-----------------------------------|
A|-2-2-----------------------------------|
E|-0-0-----------------------------------|


VERSE TWO

Guitar One
e|-0-0-000---0-0-000-0-0-000-0-0-------0-|
B|-9-9-999-7/9-9-999-7-7-777-5-5-7b9b7---|
G|---------------------------------------|
D|---------------------------------------|
A|---------------------------------------|
E|---------------------------------------|
Guitar Two
e|---------------------------------------|
B|---------------------------------------|
G|-----------6-6-666-4-4-444-2-2-222-----|
D|-2-2-222---6-6-666-4-4-444-2-2-222-----|
A|-2-2-222---4-4-444-2-2-222-0-0-000-----|
E|-0-0-000-------------------------------|

Guitar One
e|-0-0-000---0-0-000-0-0-000-0-0-00x-|
B|-9-9-999-7/9-9-999-7-7-777-5-5-55x-|
G|-----------------------------------|
D|-----------------------------------|
A|-----------------------------------|
E|-----------------------------------|
Guitar Two
e|-----------------------------------|
B|-----------------------------------|
G|-----------6-6-666-4-4-444-2-2-22x-|
D|-2-2-222---6-6-666-4-4-444-2-2-22x-|
A|-2-2-222---4-4-444-2-2-222-0-0-00x-|
E|-0-0-000---------------------------|


PRE-CHORUS

Guitar One
e|-----------------------|
B|-----------------------|
G|-----------------------|
D|-4-4x-6-6x-7-77-x77-7x-|
A|-4-4x-6-6x-7-77-x77-7x-|
E|-2-2x-4-4x-5-55-x55-5x-|
Guitar Two
e|-----------------------|
B|-----------------------|
G|-----------------------|
D|-4-4x-6-6x-7-77-x77-7x-|
A|-4-4x-6-6x-7-77-x77-7x-|
E|-2-2x-4-4x-5-55-x55-5x-|

Guitar One
e|---------------------------|
B|---------------------------|
G|------8-9-9b11-9-8-9-9-9-9-|
D|-9-11----------------------|
A|---------------------------|
E|---------------------------|
Guitar Two
e|---------------------------|
B|---------------------------|
G|---------------------------|
D|-4-4x-6-6x-7-7-7-7---------|
A|-4-4x-6-6x-7-7-7-7---------|
E|-2-2x-4-4x-5-5-5-5---------|

Guitar One
e|---------|
B|---------|
G|---------|
D|---------|
A|---------|
E|-2-2/12\-|
   *
Guitar Two
e|---------|
B|---------|
G|---------|
D|---------|
A|---------|
E|---------|


CHORUS

Guitar One
e|------------------------------------|
B|------------------------------------|
G|---------6-66-66x----------6-66-66x-|
D|-2-2-22x-6-66-66x-2-22-22x-6-66-66x-|
A|-2-2-22x-4-44-44x-2-22-22x-4-44-44x-|
E|-0-0-00x----------0-00-00x----------|
Guitar Two
e|------------------------------------|
B|------------------------------------|
G|---------6-66-66x----------6-66-66x-|
D|-2-2-22x-6-66-66x-2-22-22x-6-66-66x-|
A|-2-2-22x-4-44-44x-2-22-22x-4-44-44x-|
E|-0-0-00x----------0-00-00x----------|

Guitar One
e|--------------------------------------|
B|--------------------------------------|
G|----------6-66-66x----------6-66-xxxx-|
D|-2-22-22x-6-66-66x-2-22-22x-6-66-xxxx-|
A|-2-22-22x-4-44-44x-2-22-22x-4-44-xxxx-|
E|-0-00-00x----------0-00-00x-----------|
Guitar Two
e|--------------------------------------|
B|--------------------------------------|
G|----------6-66-66x----------6-66-xxxx-|
D|-2-22-22x-6-66-66x-2-22-22x-6-66-xxxx-|
A|-2-22-22x-4-44-44x-2-22-22x-4-44-xxxx-|
E|-0-00-00x----------0-00-00x-----------|


BRIDGE

Guitar One
e|-0-0-0-0-12-11------0----------------|
B|-9-9-9-0--0--0-/14-14-14\----11/12\9-|
G|--------------------------11---------|
D|-------------------------------------|
A|-------------------------------------|
E|-------------------------------------|
Guitar Two
e|-------------------------------------|
B|-------------------------------------|
G|----------------6-6-666x-------------|
D|-2-2-222x-------6-6-666x-------------|
A|-2-2-222x-------4-4-444x-------------|
E|-0-0-000x----------------------------|

Guitar One
e|-0-0-0-0-12-11------0----------------|
B|-9-9-9-0--0--0-/14-14-14\----11/12\9-|
G|--------------------------11---------|
D|-------------------------------------|
A|-------------------------------------|
E|-------------------------------------|
Guitar Two
e|-------------------------------------|
B|-------------------------------------|
G|----------------6-6-666x-------------|
D|-2-2-222x-------6-6-666x-------------|
A|-2-2-222x-------4-4-444x-------------|
E|-0-0-000x----------------------------|

Guitar One
e|-0-0-0-0-12-11------0----------------|
B|-9-9-9-0--0--0-/14-14-14\----11/12\9-|
G|--------------------------11---------|
D|-------------------------------------|
A|-------------------------------------|
E|-------------------------------------|
Guitar Two
e|-------------------------------------|
B|-------------------------------------|
G|----------------6-6-666x-------------|
D|-2-2-222x-------6-6-666x-------------|
A|-2-2-222x-------4-4-444x-------------|
E|-0-0-000x----------------------------|

Guitar One
e|-0-0-0-0-12-11------0----------------|
B|-9-9-9-0--0--0-/14-14-14\----11/12\9-|
G|--------------------------11---------|
D|-------------------------------------|
A|-------------------------------------|
E|-------------------------------------|
Guitar Two
e|-------------------------------------|
B|-------------------------------------|
G|----------------6-6-66xx-------------|
D|-2-2-222x-------6-6-66xx-------------|
A|-2-2-222x-------4-4-44xx-------------|
E|-0-0-000x----------------------------|

Guitar One
e|-----------------------------|
B|-----------11/12\9-9---------|
G|--------11-------------------|
D|-----------------------------|
A|-----------------------------|
E|-----------------------------|
Guitar Two
e|-----------------------------|
B|-----------------------------|
G|-----------------------------|
D|-2---------------2-2---------|
A|-2---------------2-2---------|
E|-0---------------0-0---------|

Guitar One
e|-----------------------------|
B|-----------------------------|
G|-9-9-------------------------|
D|-9-9-------------------------|
A|-7-7-------------------------|
E|-----------------------------|
Guitar Two
e|-----------------------------|
B|-----------------------------|
G|-----------------------------|
D|-2-2-------------------------|
A|-2-2-------------------------|
E|-0-0-------------------------|


PRE-CHORUS

e|-------|   
B|-------| Some feedback or
G|-x-x---| something, I 
D|-x-x---| don’t know how
A|-x-x---| to tab that...   
E|-x-x---|


CHORUS

Guitar One
e|------------------------------------|
B|------------------------------------|
G|---------6-66-66x----------6-66-66x-|
D|-2-------6-66-66x-2-22-22x-6-66-66x-|
A|-2-------4-44-44x-2-22-22x-4-44-44x-|
E|-0----------------0-00-00x----------|
Guitar Two
e|------------------------------------|
B|------------------------------------|
G|---------6-66-66x----------6-66-66x-|
D|-2-------6-66-66x-2-22-22x-6-66-66x-|
A|-2-------4-44-44x-2-22-22x-4-44-44x-|
E|-0----------------0-00-00x----------|

Guitar One
e|------------------------------------|
B|------------------------------------|
G|---------6-66-66x----------6-66-66x-|
D|-2-2-22x-6-66-66x-2-22-22x-6-66-66x-|
A|-2-2-22x-4-44-44x-2-22-22x-4-44-44x-|
E|-0-0-00x----------0-00-00x----------|
Guitar Two
e|------------------------------------|
B|------------------------------------|
G|---------6-66-66x----------6-66-66x-|
D|-2-2-22x-6-66-66x-2-22-22x-6-66-66x-|
A|-2-2-22x-4-44-44x-2-22-22x-4-44-44x-|
E|-0-0-00x----------0-00-00x----------|


OUTRO

Guitar One
e|-0-0-0-0-12-11------0----------------|
B|-9-9-9-0--0--0-/14-14-14\----11/12\9-|
G|--------------------------11---------|
D|-------------------------------------|
A|-------------------------------------|
E|-------------------------------------|
Guitar Two
e|-------------------------------------|
B|-------------------------------------|
G|-----------------6-66-66x------------|
D|-2-22-22x--------6-66-66x------------|
A|-2-22-22x--------4-44-44x------------|
E|-0-00-00x----------------------------|

Guitar One
e|-0-0-0-0-12-11------0----------------|
B|-9-9-9-0--0--0-/14-14-14\----11/12\9-|
G|--------------------------11---------|
D|-------------------------------------|
A|-------------------------------------|
E|-------------------------------------|
Guitar Two
e|-------------------------------------|
B|-------------------------------------|
G|-----------------6-66-66x------------|
D|-2-22-22x--------6-66-66x------------|
A|-2-22-22x--------4-44-44x------------|
E|-0-00-00x----------------------------|

Guitar One
e|-0-0-0-0-12-11------0----------------|
B|-9-9-9-0--0--0-/14-14-14\----11/12\9-|
G|--------------------------11---------|
D|-------------------------------------|
A|-------------------------------------|
E|-------------------------------------|
Guitar Two
e|-------------------------------------|
B|-------------------------------------|
G|-----------------6-66-66x------------|
D|-2-22-22x--------6-66-66x------------|
A|-2-22-22x--------4-44-44x------------|
E|-0-00-00x----------------------------|

Guitar One
e|-0-0-0-0-12-11------0----------------|
B|-9-9-9-0--0--0-/14-14-14\----11/12\9-|
G|--------------------------11---------|
D|-------------------------------------|
A|-------------------------------------|
E|-------------------------------------|
Guitar Two
e|-------------------------------------|
B|-------------------------------------|
G|-----------------6-66-66x------------|
D|-2-22-22x--------6-66-66x------------|
A|-2-22-22x--------4-44-44x------------|
E|-0-00-00x----------------------------|

Guitar One
e|-0-0x-0-0x-0-00-x00----------0-0x-0-0x-0-0-0-0-|
B|-9-9x-7-7x-5-55-x55----11/12\9-9x-7-7x-5-5-5-5-|
G|--------------------11-------------------------|
D|-----------------------------------------------|
A|-----------------------------------------------|
E|-----------------------------------------------|
Guitar Two
e|-----------------------------------------------|
B|-----------------------------------------------|
G|-----------------------------------------------|
D|-4-4x-6-6x-7-77-x77-7x-------4-4x-6-6x-7-7-7-7-|
A|-4-4x-6-6x-7-77-x77-7x-------4-4x-6-6x-7-7-7-7-|
E|-2-2x-4-4x-5-55-x55-5x-------2-2x-4-4x-5-5-5-5-|

Then it’s just a faded chorus 
till it fades out completely........




So yeah that’s it. First tab done. I’m pretty sure this is not 100 percent, 
you dont have to play it exactly like this if you dont want to, 
but if you listen to the song I think youll hear what I heard.
Anything you wanna say, just put in the comments section.
Oh yeah, and if you haven’t done so yet, buy the album, “Coming Home”.
--------

            
            
Suggest correction
Creating personal tab
Creating personal tab
You can edit any tab online and save it as your Personal.

You can edit, replace or remove any tab part or add personal notes – all changes will be seen only by you.

Personal tabs can be accessed anytime from any device, even offline.
Learn more »
comments
print report bad tab
4 comments total. Showing first comments.
0 reply
DOOdooroCK 10 Sep 28, 2006 01:19 PM

this a good songs and tab 5 stars from me. NFG rocks!

0 reply
nfgrox312 155 Nov 06, 2006 11:37 AM

i watched them play this live on mtv and i couldn't find a thing wrong with this tab. very good.

0 reply
batesyy 1,212 Apr 10, 2007 07:57 PM

I dont think the 12 and the 11 on the e is right..

the string that is making the echo is the e string so it has to be the same..

After the 9 if you go up to 17 and 16 it works but I saw him play it live differently.

But good tab

guest
You may want to rate the tab now too:
select rating
Wanna post a correction for this tab? Suggest correction