Oops, an error
Loading. Please wait.

Situations bass

2,120 views 1 this week
no commentswrite comment
1 2 3 4 5
2 more votes to show rating
add to favorites
×
Save as Personal and add changes to this tab that will be seen only by you. Learn more ›
×
You can save this tab as Personal to edit and correct it or add notes. All changes will be seen only by you. Learn more »
launch autoscroll
font size
0
reset
guitar tuner
edit
Autoscroll
slow
fast
+/-
esc
set tempo
stop
Situations by New Found Glory:
Tabbed by KG

Starting Note:(0:00)
G|---|
D|---|
A|5~-|
D|---|

Intro:(0:04)
G|----------------------------------------------|
D|----------------------------------------------|
A|----------------------------------------------|
D|-------0---0---0---0---0000-0-0---0---0---0---|

G|----------------------------------------------|
D|----------------------------------------------|
A|----------------------------------------------|
D|-5555-5-5---5---5---5---5555-5-5---5---5---5--|

(0:14)
G|---------------| The intro repeats twice,
D|---------------| play this part after it has
A|---------------|completed  once
D|-0000-0-0------|

(0:24)
G|---------|
D|---------|< Play this part when the
A|---------|  intro is about to end and
D|-0-0-----|  when the intro is played
              only once


Verse X2: (0:25)
G|---------------------------------------------------------------------|
D|---------------------------------------------------------------------|
A|---------------------------------------------------------------------|
D|-7\4-0-0-0-0-0-0-0-0-0-0-0-0-0-0-0-0-0-0-0-0-0-0-0-0-0-0-0-0-0-0-0-0-|

G|---------------------------------------------------------------------|
D|---------------------------------------------------------------------|
A|---------------------------------------------------------------------|
D|-7\4-5-5-5-5-5-5-5-5-5-5-5-5-5-5-5-5-5-5-5-5-5-5-5-5-5-5-5-5-5-5-5-5-|

Part just before Chorus:(0:46)

G|----------------|
D|----------------|
A|----------------|
D|-0-12-0-12-0-12-|

Chorus Part 1: (0:48)

G|---------------------|
D|---------------------|
A|---------------------|
D|-0--0-0-0---5--5--5-5|X2

(0:53)
G|---------------------|
D|---------------------|
A|---------------------|
D|-2--2-2-2---5--5--5-5|X2

Chorus Part 2: 0:58

G|---------------------|
D|---------------------|
A|-----------5-5--5-5--|
D|-0--0-0-0------------|X2

(1:03)
G|---------------------|
D|---------------------|
A|---------------------|
D|-2--2-2-2---5--5--5-5|X2

Repeat Intro one time(1:09)

Verse X2: (1:19)
G|---------------------------------------------------------------------|
D|---------------------------------------------------------------------|
A|---------------------------------------------------------------------|
D|-7\4-0-0-0-0-0-0-0-0-0-0-0-0-0-0-0-0-0-0-0-0-0-0-0-0-0-0-0-0-0-0-0-0-|

G|---------------------------------------------------------------------|
D|---------------------------------------------------------------------|
A|---------------------------------------------------------------------|
D|-7\4-5-5-5-5-5-5-5-5-5-5-5-5-5-5-5-5-5-5-5-5-5-5-5-5-5-5-5-5-5-5-5-5-|

Part just before Chorus:(1:40)

G|----------------|
D|----------------|
A|----------------|
D|-0-12-0-12-0-12-|

Chorus Part 1: (1:42)

G|---------------------|
D|---------------------|
A|---------------------|
D|-0--0-0-0---5--5--5-5|X2

(1:48)
G|---------------------|
D|---------------------|
A|---------------------|
D|-2--2-2-2---5--5--5-5|X2

Chorus Part 2: (1:52)

G|---------------------|
D|---------------------|
A|-----------5-5--5-5--|
D|-0--0-0-0------------|X2

(1:58)
G|---------------------|
D|---------------------|
A|---------------------|
D|-2--2-2-2---5--5--5-5|X2

Bridge:(2:03)

G|-------------------------------------------------------------------------|
D|-------------------------------------------------------------------------|
A|-------------------------------------------------------------------------|
D|-0-X64>(The whole bridge is this note over and over as far as i can tell)|

Chorus 3 Part 1:(2:25)
G|--------------------------------------------------------|
D|--------------------------------------------------------|
A|--------------------------------5---------5-5---5-5-----|
D|- (continued from bridge) 0-0-0---7\4-------------------|

G|---------------------| (2:28)
D|---------------------|
A|---------------------|
D|-0--0-0-0---5--5--5-5|

(2:31)
G|---------------------|
D|---------------------|
A|---------------------|
D|-2--2-2-2---5--5--5-5|X2

Chorus 3 Part 2: (1:52)

G|------------------------|
D|------------------------|
A|--------------5-5-5-5-5-|
D|-0-0-0-0-0--------------|X2

G|---------------------|
D|---------------------|
A|---------------------|
D|-2--2-2-2---5--5--5-5|X2

G|---------------------|
D|---------------------|
A|---------------------|
D|-0--0-0-0---5--5--5-5|x2

G|---------------------|
D|---------------------|
A|---------------------|
D|-2--2-2-2---5--5--5-5|X2

Outro/Intro (2:58)

G|----------------------------------------------|
D|----------------------------------------------|
A|----------------------------------------------|
D|-------0---0---0---0---0000-0-0---0---0---0---|

G|----------------------------------------------|
D|----------------------------------------------|
A|----------------------------------------------|
D|-5555-5-5---5---5---5---5555-5-5---5---5---5--|

G|---------|
D|---------|
A|---------|
D|-0-0-----|

Last Part : (3:09)
G|--------------------------------|
D|--------------------------------|
A|--------------------------------|
D|7\4---12--0-0-0--12--0-0-0--12~-|

Legend:
/=slide down
`= tremelo/vibrato


Have Fun

            
            
Suggest correction
Creating personal tab
Creating personal tab
You can edit any tab online and save it as your Personal.

You can edit, replace or remove any tab part or add personal notes – all changes will be seen only by you.

Personal tabs can be accessed anytime from any device, even offline.
Learn more »
Give kudos to tab author, rate the tab!
1 2 3 4 5
comments
print report bad tab
guest
You may want to rate the tab now too:
select rating
Wanna post a correction for this tab? Suggest correction