Oops, an error
Loading. Please wait.

The Promise tab

version 2
version 2

Whole song

8,993 views 3 this week
1 commentread comment
1 2 3 4 5
x 7
add to favorites
×
Save as Personal and add changes to this tab that will be seen only by you. Learn more ›
×
You can save this tab as Personal to edit and correct it or add notes. All changes will be seen only by you. Learn more »
launch autoscroll
font size
0
reset
how to read this tab
guitar tuner
edit
Autoscroll
slow
fast
+/-
esc
set tempo
stop
Author
Tabbers playing skills
advanced +
By-Francis
SHC-Lucena City,Philippines
Cp #- 09287150674 
E-add- f_sario@yahoo.com  
http://profiles.friendster.com/37158911

GtrI  ( e b g d A E )- dist

GtrII ( e b g d A E )- dist

Intro-

Piano
|-------------------|---------------------|------------------|---------------------|
|------6--5--—--5~~-|-----6-5-----5~------|------6-5---------|-----6-5----5~----8~-|
|-5-7--------7------|-5-7------7-----5~---|-5-7-------7------|-5h7------7----5~----|
|-------------------|---------------------|------------------|---------------------|
|-------------------|------------(0)------|--------------8~~-|---------------------|
|-------------------|---------------------|------------------|---------------------|

1.

GtrI 
|------------------------------------------------------------------------|
|------------------------------------------------------------------------|
|-5---5----5-----5-----5-----5-----5/------------------------------------|
|-5-5-5-5--5--5--5--5--5--5--5--5--5/------------------------------------|
|-3-5-3-5--3--5--3--5--3--5--3--5--3/------------------------------------|
|---3---3-----3-----3-----3-----3----------------------------------------|
Gtr II
|-----------------------------------------------------------------------|
|-----------------------------------------------------------------------|
|-5-5-5-5--5--5--5--5--5--5--5--5--5------------------------------------|
|-x-x-x-x--x--x--x--x--x--x--x--x--x------------------------------------|
|-3-3-3-3--3--3--3--3--3--3--3--3--3------------------------------------|
|-----------------------------------------------------------------------|

Verse-
GtrI& II
|-----------------------------------------------------------------------|
|-----------------------------------------------------------------------|
|-55555555555555----------------------------------5555555555555555------|
|-55555555555555-777777777777777--333333333333333-5555555555555555------|2x
|-33333333333333-777777777777777--333333333333333-3333333333333333------|
|----------------555555555555555--111111111111111-----------------------|

Pre-
GtrI & II
|-----------------------------------------------------------------------|
|-----------------------------------------------------------------------|
|-5-xxxx-5-xxxx-5-------------------------------------------------------|
|-5-xxxx-5-xxxx-5-------------------------------------------------------|
|-3-xxxx-3-xxxx-3-------------------------------------------------------|
|-----------------------------------------------------------------------|

Chorus-
GtrI & II
|-----------------------------------------------------------------------|
|-----------------------------------------------------------------------|
|--555555555555-----------------------------55555555555-----------------|
|--555555555555-777777777777-3333333333333--555555555555--7-xxx-5-------|2x
|--333333333333-777777777777-3333333333333--333333333333--7-xxx-5-------|
|---------------555555555555-1111111111111----------------5-xxx-3-------|


Repeat Intro,Verse,Pre,Chorus.
Interlude-
GtrII 
|-----------------------------------------------------------------------|
|-----------------------------------------------5-----------------------|
|----5-4~--5-----7-5-4~--5--------5~--4-5~----5--7--5-------------------|
|--5---------5~------------5----5---------------------5~----------------|
|-----------------------------------------------------------------------|
|-----------------------------------------------------------------------|


|-----------------------------------------------------------------------|
|------5--8-6-5--------------5--8-6-5-----------------------------------|
|----5---------------------5---------------------5----------------------|
|--5------------5-7~-----5------------5--7~------5----------------------|
|------------------------------------------------3----------------------|
|-----------------------------------------------------------------------|
   * *                   * *
Repeat Chorus-

Last Chorus-

GtrI & II
|-----------------------------------------------------------------------|
|-----------------------------------------------------------------------|
|--5-5-5-5-5-5-5-----------------------------5-5-5-5-5-5----------------|
|--5-5-5-5-5-5-5-7-7-7-7-7-7-7-3-3-3-3-3-3-3-5-5-5-5-5-5--7-xxx-5-------|2x
|--3-3-3-3-3-3-3-7-7-7-7-7-7-7-3-3-3-3-3-3-3-3-3-3-3-3-3--7-xxx-5-------|
|----------------5-5-5-5-5-5-5-1-1-1-1-1-1-1--------------5-xxx-3-------|


GtrI & II
|-----------------------------------------------------------------------|
|-----------------------------------------------------------------------|
|---------------------------------------------------5~------------------|
|-7-7-7-7-7-7-7-7-7-7--3-3-3-3-3-3-3-3-3-3-3-3------5~------------------|end
|-7-7-7-7-7-7-7-7-7-7--3-3-3-3-3-3-3-3-3-3-3-3------3~------------------|
|-5-5-5-5-5-5-5-5-5-5--1-1-1-1-1-1-1-1-1-1-1-1--------------------------|

            
            
Suggest correction
Creating personal tab
Creating personal tab
You can edit any tab online and save it as your Personal.

You can edit, replace or remove any tab part or add personal notes – all changes will be seen only by you.

Personal tabs can be accessed anytime from any device, even offline.
Learn more »
comments
print report bad tab
1 comment total.
0 reply
Twinkle Mangi 64 Aug 13, 2010 12:37 AM

tol kulang ka ng solo...

guest
You may want to rate the tab now too:
select rating
Wanna post a correction for this tab? Suggest correction