Oops, an error
Loading. Please wait.

Too Good To Be solo tab

version 1
version 1

Solo

Whole song

Interactive

2,511 views 1 this week
2 commentsread comments
1 2 3 4 5
x 4
add to favorites
×
Save as Personal and add changes to this tab that will be seen only by you. Learn more ›
×
You can save this tab as Personal to edit and correct it or add notes. All changes will be seen only by you. Learn more »
launch autoscroll
font size
0
reset
how to read this tab
guitar tuner
edit
Autoscroll
slow
fast
+/-
esc
set tempo
stop
Difficulty
Tabber: Waitesy
Artist: New Found Glory
Song: Too Good To Be

My version of the solo for too good to be. Its good enough to play along with but I'm 
75% sure its right.


e------------------------------------------------|
b------------------------------------------------|
g-------9---11^---9----------------9---11/15--14-|
d-9--11----------------9---11--------------------|
a------------------------------------------------|
E------------------------------------------------|

do this twice

e--------------------------------------------|
b------12------------------------------------|
g---------13----9--11-11-----------9--11^--9-|
d-----------------------------9--11----------|
a--------------------------------------------|
E--------------------------------------------|

e----------------------------------------------------|
b----------------------------------------------------|
g------12--------------------------------------------|
d---------13---9--11-11-----15--14--11----14--11---9-|
a----------------------------------------------------|
E----------------------------------------------------|

            
            
Suggest correction
Creating personal tab
Creating personal tab
You can edit any tab online and save it as your Personal.

You can edit, replace or remove any tab part or add personal notes – all changes will be seen only by you.

Personal tabs can be accessed anytime from any device, even offline.
Learn more »
comments
print report bad tab
2 comments total.
0 reply
waitesy 10 Nov 01, 2006 04:26 AM

ok, this is my tab and theres a mistake. Where the note is 15 play the 14th fret and where the note is 14 play the 13th fret. I did it from memory and got it mixed up!!

0 reply
smorl7 303 Aug 24, 2007 05:03 PM

the end part of the solo is wrong

guest
Wanna post a correction for this tab? Suggest correction