Oops, an error
Loading. Please wait.

Age Of Consent bass

version 1
version 1

Whole song

Interactive

20,663 views 108 this week
2 commentsread comments
1 2 3 4 5
x 10
add to favorites
×
Save as Personal and add changes to this tab that will be seen only by you. Learn more ›
×
You can save this tab as Personal to edit and correct it or add notes. All changes will be seen only by you. Learn more »
launch autoscroll
font size
0
reset
guitar tuner
backing track
0:00
0:00
edit
Autoscroll
slow
fast
+/-
esc
set tempo
stop
Author
NEW ORDER - AGE OF CONSENT
ALBUM: POWER, LIES & CORRUPTION (1983)
BASSIST: PETER HOOK

[Intro]

E ----------------------------------------------|
A ----------------------------------------------|
D -7-9-----9------------7-9-------9-------------|
G -----7-7---7-9-7-7-7------7-7-7---7-9-7-7-7---|

[Verse]

E ------------------------------------------------------|
A ------------------------------------------------------|
D -7-9-----9------------------7-9-9-9-7-9-9-9-9-9-9-9---|
G -----7-7----7-9-7-9-7-9-(9)---------------------------|

[Chorus]

E ----------------------------------------------|
A ----------------------------------------------|
D -7-9-----9------------7-9-------9-------------|
G -----7-7---7-9-7-7-7------7-7-7---7-9-7-7-7---|

E --------------------------------------------------|
A --------------------------------------------------|
D -7-9-----9------------7-9-------9-----------------|
G -----7-7---7-9-7-7-7------7-7-7---7-9-11-12-11-9--|

[Bridge]

E -------------------------------------------------|
A -------------------------------------------------|
D -7-9-----9-------------7-9-9-9-7-9-9-9-9-9-9-9---|
G -----7-7----7-9-7-7-7----------------------------|

hooky plays some variations on these lines.

ENJOY!

JAH WOBBLE IS GOD!!!!



************************************

| (n)  Ghost note    

************************************

            
            
Suggest correction
Creating personal tab
Creating personal tab
You can edit any tab online and save it as your Personal.

You can edit, replace or remove any tab part or add personal notes – all changes will be seen only by you.

Personal tabs can be accessed anytime from any device, even offline.
Learn more »
comments
print report bad tab
2 comments total.
+4 reply
wulfesam1 10 Mar 20, 2017 06:33 PM

It's Power, Corruption, & Lies you asshole.

+2 reply
Mindspinster 10 Jun 10, 2017 11:25 PM

Good besides being upside down

guest
You may want to rate the tab now too:
select rating
Wanna post a correction for this tab? Suggest correction