Oops, an error
Loading. Please wait.

As It Is When It Was tab

70 views 3 this week
1 commentread comment
1 2 3 4 5
2 more votes to show rating
add to favorites
×
Save as Personal and add changes to this tab that will be seen only by you. Learn more ›
×
You can save this tab as Personal to edit and correct it or add notes. All changes will be seen only by you. Learn more »
launch autoscroll
font size
0
reset
how to read this tab
guitar tuner
edit
Autoscroll
slow
fast
+/-
esc
set tempo
stop
About this tab version
Song has 2 guitars, the second one is difficult to tab out, both are clean. Was this info helpful? Yes No
[Chords] 
G C G C G C Am D

[Intro]
e|-----------|--0--0---|----------|--0--0---|----------|-0--0----|--0--0---|--2--2-----|
B|--0---0----|---1--1-1|--0--0----|---1--1-1|--0--0----|--1--1-1-|---1--1-1|---3--3-3--|
G|---0---0-0-|----0--0-|---0--0-0-|----0--0-|---0--0-0-|---0--0--|----2--2-|----2--2---|(x2)
D|----0---0--|---------|----0--0--|---------|----0--0--|---------|---------|-0---------|
A|-----------|3--------|----------|3--------|----------|3--------|-0-------|-----------|
E|-3---------|---------|3---------|---------|-3--------|---------|---------|-----------|

(Guitar 2 plays variations of this throughout the song)
e|-------|-------|-----|---------|-----|----------------|------|--------------------|
B|-------|-------|-----|---------|-----|----------------|------|--------------------|
G|-------|-------|-----|---------|-----|----------------|------|--------------------|
D|-------|-------|-----|---------|-----|----------------|------|--------------------|
A|--5----|-5/7\5-|--5--|-5/7-5-3-|--5--|--5-7-8-7-5-3-5-|--3-5-|--------------------|
E|-3-----|-------|-3---|---------|-3---|----------------|------|-3--3-3-------------|

[Verse]
e|-----------|--0--0---|----------|--0--0---|----------|-0--0----|--0--0---|--2--2-----|
B|--0---0----|---1--1-1|--0--0----|---1--1-1|--0--0----|--1--1-1-|---1--1-1|---3--3-3--|
G|---0---0-0-|----0--0-|---0--0-0-|----0--0-|---0--0-0-|---0--0--|----2--2-|----2--2---|
D|----0---0--|---------|----0--0--|---------|----0--0--|---------|---------|-0---------|
A|-----------|3--------|----------|3--------|----------|3--------|-0-------|-----------|
E|-3---------|---------|3---------|---------|-3--------|---------|---------|-----------|

e|-----------|--0--0---|----------|--0--0---|----------|-0--0----|--0--0---|--2--2-----|
B|--0---0----|---1--1-1|--0--0----|---1--1-1|--0--0----|--1--1-1-|---1--1-1|---3--3-3--|
G|---0---0-0-|----0--0-|---0--0-0-|----0--0-|---0--0-0-|---0--0--|----2--2-|----2--2---|
D|----0---0--|---------|----0--0--|---------|----0--0--|---------|---------|-0---------|
A|-----------|3--------|----------|3--------|----------|3--------|-0-------|-----------|
E|-3---------|---------|3---------|---------|-3--------|---------|---------|-----------|

[Chorus]
(Strum these out)
e|--1--0--1--0--1--0--0--2-----------------------------------------------------|
B|--0--1--0--1--0--1--1--3-----------------------------------------------------|
G|--0--0--0--0--0--0--2--2-----------------------------------------------------|(x2)
D|--0--2--0--2--0--2--2--0-----------------------------------------------------|
A|--2--3--2--3--2--3--0--------------------------------------------------------|
E|--3-----3-----3--------------------------------------------------------------|

(after chorus guitar 1 plays verse and guitar 2 plays this)
e|-------|-------|-----|---------|-----|----------------|------|--------------------|
B|-------|-------|-----|---------|-----|----------------|------|--------------------|
G|-------|-------|-----|---------|-----|----------------|------|--------------------|
D|-------|-------|-----|---------|-----|----------------|------|--------------------|
A|--5----|-5/7\5-|--5--|-5/7-5-3-|--5--|--5-7-8-7-5-3-5-|--3-5-|--------------------|
E|-3-----|-------|-3---|---------|-3---|----------------|------|-3--3-3-------------|

[Verse]
e|-----------|--0--0---|----------|--0--0---|----------|-0--0----|--0--0---|--2--2-----|
B|--0---0----|---1--1-1|--0--0----|---1--1-1|--0--0----|--1--1-1-|---1--1-1|---3--3-3--|
G|---0---0-0-|----0--0-|---0--0-0-|----0--0-|---0--0-0-|---0--0--|----2--2-|----2--2---|
D|----0---0--|---------|----0--0--|---------|----0--0--|---------|---------|-0---------|
A|-----------|3--------|----------|3--------|----------|3--------|-0-------|-----------|
E|-3---------|---------|3---------|---------|-3--------|---------|---------|-----------|

e|-----------|--0--0---|----------|--0--0---|----------|-0--0----|--0--0---|--2--2-----|
B|--0---0----|---1--1-1|--0--0----|---1--1-1|--0--0----|--1--1-1-|---1--1-1|---3--3-3--|
G|---0---0-0-|----0--0-|---0--0-0-|----0--0-|---0--0-0-|---0--0--|----2--2-|----2--2---|
D|----0---0--|---------|----0--0--|---------|----0--0--|---------|---------|-0---------|
A|-----------|3--------|----------|3--------|----------|3--------|-0-------|-----------|
E|-3---------|---------|3---------|---------|-3--------|---------|---------|-----------|

[Chorus]
(Strum these out)
e|--1--0--1--0--1--0--0--2-----------------------------------------------------|
B|--0--1--0--1--0--1--1--3-----------------------------------------------------|
G|--0--0--0--0--0--0--2--2-----------------------------------------------------|(x2)
D|--0--2--0--2--0--2--2--0-----------------------------------------------------|
A|--2--3--2--3--2--3--0--------------------------------------------------------|
E|--3-----3-----3--------------------------------------------------------------|


[Outro]
(strum these out)
e|--1--0--0--2-----------------------------------------------------|
B|--0--1--1--3-----------------------------------------------------|
G|--0--0--2--2-----------------------------------------------------|(x10)
D|--0--2--2--0-----------------------------------------------------|
A|--2--3--0--------------------------------------------------------|
E|--3--------------------------------------------------------------|


************************************

| /   Slide up
| \   Slide down

************************************

            
            
Suggest correction
Creating personal tab
Creating personal tab
You can edit any tab online and save it as your Personal.

You can edit, replace or remove any tab part or add personal notes – all changes will be seen only by you.

Personal tabs can be accessed anytime from any device, even offline.
Learn more »
Give kudos to tab author, rate the tab!
1 2 3 4 5
comments
print report bad tab
1 comment total.
0 reply
Vaexa 52 Oct 29, 2017 09:50 AM

The loud main guitar is Hooky's six string bass

guest
You may want to rate the tab now too:
select rating
Wanna post a correction for this tab? Suggest correction