Oops, an error
Loading. Please wait.

Bizarre Love Triangle bass

version 1
version 1

Whole song

Interactive

9,592 views 36 this week
1 commentread comment
1 2 3 4 5
x 6
add to favorites
×
Save as Personal and add changes to this tab that will be seen only by you. Learn more ›
×
You can save this tab as Personal to edit and correct it or add notes. All changes will be seen only by you. Learn more »
launch autoscroll
font size
0
reset
guitar tuner
backing track
0:00
0:00
edit
Autoscroll
slow
fast
+/-
esc
set tempo
stop
Author
Difficulty
Listen to the song for the rhythm.
Key:
\ slide down
/ slide up
[#x] play # times fast(listen for rhythm)

Every time I think of you I feel a shock right through with a bolt of blue.
G|-----------------------10-8--7--8-7------|
D|---------------12---12-------------------|
A|-13---13\8---8/--------------------------|
E|-----------------------------------------|
It's no problem of mine but it's a problem I find living a life that I can't leave behind.
G|-----------------------10-8--7--8-7------|
D|---------------12---12-------------------|
A|-13---13\8---8/--------------------------|
E|-----------------------------------------|
There's no sense in telling me.  The wisdom of the fool won't set you free.
G|-----------------------------------------|
D|--------15---15-12--12-15-13-12-13-12----|
A|-13---13/--------------------------------|
E|-----------------------------------------|
But that's the way that it goes and it's what nobody knows.  Well everyday my confusion grows.
G|-----------------------------------------|
D|--------15---15-12--12-15-13-12-13-12----|
A|-13---13/-----------------------------13-|
E|-----------------------------------------|


Every time I see you falling I get down on my knees and pray.
G|-----------------------------------------|
D|--------15---15-12--12-15-13-12-13-12----|
A|-13---13/--------------------------------|
E|-----------------------------------------|
I'm waiting for that final moment.  You say the words that I can't say.
G|-----------------------------------------|
D|--------15---15-12--12-15-13-12-13-12----|
A|-13---13/-----------------------------13-|
E|-----------------------------------------|



I feel fine and I feel good.  I'm feeling like I never should.
G|-----------------------10-8--7--8-7------|
D|---------------12---12-------------------|
A|/13---13\8---8/--------------------------|
E|-----------------------------------------|
Whenever I get this way I just don't know what to say.  Why can't we be ourselves like 
we were yesterday.
G|-----------------------10-8--7--8-7------|
D|---------------12---12-------------------|
A|-13---13\8---8/--------------------------|
E|-----------------------------------------|
I'm not sure what this could mean.  I don't think you're what you seem.
G|-----------------------------------------|
D|--------15---15-12--12-15-13-12-13-12----|
A|-13---13/--------------------------------|
E|-----------------------------------------|
I do admit to myself that if I hurt someone else then I'll see just what we're meant to be.
G|-----------------------------------------|
D|--------15---15-12--12-15-13-12-13-12----|
A|-13---13/-----------------------------13-|
E|-----------------------------------------|



Every time I see you falling I get down on my knees and pray.
G|-----------------------------------------|
D|--------15---15-12--12-15-13-12-13-12----|
A|-13---13/--------------------------------|
E|-----------------------------------------|
I'm waiting for that final moment.  You say the words that I can't say.
G|-----------------------------------------|
D|--------15---15-12--12-15-13-12-13-12----|
A|-13---13/--------------------------------|
E|-----------------------------------------|
Every time I see you falling I get down on my knees and pray.
G|-----------------------------------------|
D|--------15---15-12--12-15-13-12-13-12----|
A|-13---13/--------------------------------|
E|-----------------------------------------|
I'm waiting for that final moment.  You say the words that I can't say.
G|-----------------------------------------|
D|--------15---15-12--12-15-13-12-13-12----|
A|-13---13/-----------------------------13-|
E|-----------------------------------------|


(music solo)
G|-----------------------10[5x]8-7-7-------|
D|---------------12[9x]--------------------|
A|-13[9x]\8[9x]-/--------------------------|
E|-----------------------------------------|

G|-----------------------10[5x]8-7-7-------|
D|---------------12[9x]--------------------|
A|-13[9x]\8[9x]-/--------------------------|
E|-----------------------------------------|

G|-----------------------------------------|
D|-15--13-12-13\10-10-10-12-13-15---15\8---|
A|-----------------------------------------|
E|-----------------------------------------|

G|-----------------------------------------|
D|/15--13-12-13\10-10-10-12-13-15---17\8---|
A|-----------------------------------------|
E|-----------------------------------------|

G|-----------------------10[5x]8-7-7-------|
D|---------------12[9x]--------------------|
A|-13[9x]\8[9x]-/--------------------------|
E|-----------------------------------------|

G|-----------------------10[5x]8-7-7-------|
D|---------------12[9x]--------------------|
A|-13[9x]\8[9x]-/--------------------------|
E|-----------------------------------------|

G|-----------------------------------------|
D|-15--13-12-13\10-10-10-12-13-15---15\8---|
A|-----------------------------------------|
E|-----------------------------------------|

G|-----------------------------------------|
D|/15--13-12-13\10-10-10-12-13-15---17\8---|
A|-----------------------------------------|
E|-----------------------------------------|

            
            
Suggest correction
Creating personal tab
Creating personal tab
You can edit any tab online and save it as your Personal.

You can edit, replace or remove any tab part or add personal notes – all changes will be seen only by you.

Personal tabs can be accessed anytime from any device, even offline.
Learn more »
comments
print report bad tab
1 comment total.
+1 reply
May21980 66 Jan 25, 2017 06:25 PM

sounds great, good tab

guest
You may want to rate the tab now too:
select rating
Wanna post a correction for this tab? Suggest correction