Oops, an error
Loading. Please wait.

Bizzare Love Triangle solo bass

2,980 views 9 this week
no commentswrite comment
1 2 3 4 5
2 more votes to show rating
add to favorites
×
Save as Personal and add changes to this tab that will be seen only by you. Learn more ›
×
You can save this tab as Personal to edit and correct it or add notes. All changes will be seen only by you. Learn more »
launch autoscroll
font size
0
reset
guitar tuner
edit
Autoscroll
slow
fast
+/-
esc
set tempo
stop
Author
This is the bass part of this song. no one has made one so i decided to do it myself.
Its not the whole song, but its the nice parts (well to me). you have to hear the song to
know what I'm saying. its easy and I will be putting the whole song soon. Any 
corrections just email.
snoochyboochy15@gmail.com


G-------------------------------------------------------------|
D----8---------8----------12---------12---15--13--12--13--12--|
A----------------8------8-------------------------------------|
E-------------------------------------------------------------|



G------------------------------------------------------------|
D---15----13--12-13--10-----------10-12-13-15-------15-------|
A-------------------------------------------------------13---|
E------------------------------------------------------------|

            
            
Suggest correction
Creating personal tab
Creating personal tab
You can edit any tab online and save it as your Personal.

You can edit, replace or remove any tab part or add personal notes – all changes will be seen only by you.

Personal tabs can be accessed anytime from any device, even offline.
Learn more »
Give kudos to tab author, rate the tab!
1 2 3 4 5
comments
print report bad tab
guest
You may want to rate the tab now too:
select rating
Wanna post a correction for this tab? Suggest correction