Oops, an error
Loading. Please wait.

Sooner Than You Think bass

468 views 3 this week
no commentswrite comment
1 2 3 4 5
3 more votes to show rating
add to favorites
×
Save as Personal and add changes to this tab that will be seen only by you. Learn more ›
×
You can save this tab as Personal to edit and correct it or add notes. All changes will be seen only by you. Learn more »
launch autoscroll
font size
0
reset
guitar tuner
edit
Autoscroll
slow
fast
+/-
esc
set tempo
stop
Author
-------------------------------------------------------------------------------
                             Sooner Than You Think - New Order
-------------------------------------------------------------------------------
Tabbed by: Selene

Classic Hooky bassline, in that it's very melodic and makes absolutely no sense but sounds really cool.

Tuning: EADG (feel free to leave E and A at whatever you'd like, though)

Intro

G|-2--2-5--5-7--7-4--4-2--2-5--5-4--4----454---------------------------------|
D|------------------------------------5-5------------------------------------|
A|---------------------------------------------------------------------------|
E|---------------------------------------------------------------------------|

Intro part 2

G|-222-2-222-555-5-555-777-7-777-4444545----------------------------------------|
D|------------------------------------------------------------------------------|
A|------------------------------------------------------------------------------|
E|------------------------------------------------------------------------------|

Intro variation played at the end

G|-222-2-222-555-5-555-444-4-444-----454-------------------------------------|
D|-------------------------------5555---7-------------------------------------|
A|---------------------------------------------------------------------------|
E|---------------------------------------------------------------------------|

Immediately post-intro

G|-7-9-10-9----9-10-9-7-5757----7-9-10-9----9-10-9-7-5757--------------------|
D|-------------------------------------------------------7-------------------|
A|---------------------------------------------------------------------------|
E|---------------------------------------------------------------------------|

Main riff

G|-7-9-10-9----12-10-9-10-9-----12-10-9-10-9-----10-9------------------------|
D|--------------------------10---------------10-------10---------------------|
A|---------------------------------------------------------------------------|
E|---------------------------------------------------------------------------|

Chorus riff

G|----------7-9-10-9----10-9-------------7-9-10-9----------------------------|
D|-\7--/10-----------10------10-\7--/10-----------10-\7----------------------|
A|---------------------------------------------------------------------------|
E|---------------------------------------------------------------------------|

Outro riff #1 (it's a tad chaotic due to Sumner's distorted guitar being really loud, so 
use this as a guideline)

G|-222-2-2-2555-5-5-5777-7-7-74445-4-----------------------------------------|
D|---------------------------------------------------------------------------|
A|---------------------------------------------------------------------------|
E|---------------------------------------------------------------------------|

Outro riff #2

G|-999-99-999912-10-9-10-9---12-10-9-10-9----10-9----------------------------|
D|-------------------------10-------------10------10-------------------------|
A|---------------------------------------------------------------------------|
E|---------------------------------------------------------------------------|


There's a few variations Hooky plays here and there, which mostly just involve triplets 
and slides - they aren't really worth noting down. These are the basic riffs.


| /  slide up
| \  slide down
| h  hammer-on
| p  pull-off
| ~  vibrato
| +  harmonic
| x  Mute note
===============================================================================

            
            
Suggest correction
Creating personal tab
Creating personal tab
You can edit any tab online and save it as your Personal.

You can edit, replace or remove any tab part or add personal notes – all changes will be seen only by you.

Personal tabs can be accessed anytime from any device, even offline.
Learn more »
Give kudos to tab author, rate the tab!
1 2 3 4 5
comments
print report bad tab
guest
You may want to rate the tab now too:
select rating
Wanna post a correction for this tab? Suggest correction