Oops, an error
Loading. Please wait.

Dignity tab

version 1
version 1

Whole song

Interactive

9,435 views 6 this week
4 commentsread comments
1 2 3 4 5
x 7
add to favorites
×
Save as Personal and add changes to this tab that will be seen only by you. Learn more ›
×
You can save this tab as Personal to edit and correct it or add notes. All changes will be seen only by you. Learn more »
launch autoscroll
font size
0
reset
how to read this tab
guitar tuner
edit
Autoscroll
slow
fast
+/-
esc
set tempo
stop
Author
Difficulty
-------------------------------------------------------------------------------
                             "Dignity" - New Politics
-------------------------------------------------------------------------------
Tabbed by: Quimbinator
Email: Quimbinator@hotmail.com
Tuning: Standard (Eadgbe)

I love this band enough that I decided to tab it out, it took so 
many replays of the song to figure out, i hope you like it!


This is the chord progression throughout most of the song.
Listen for the strumming patterns.

E|---------------------------------------------------------------|
B|---------------------------------------------------------------|
G|--------------------6------------------------------------------|
D|--2---------6-------6--------7---------------------------------|
A|--2---------6-------4--------7---------------------------------|
E|--0---------4----------------5---------------------------------|

First 'solo'

E|-----------------------------------------------------------------|
B|--------9------8-----7------6--6----6--5-------------------------|
G|----6------6------6-----6---------3------------------------------|
D|-----------------------------------------------------------------|
A|-----------------------------------------------------------------|
E|-----------------------------------------------------------------|

End on:

E|-------------|
B|-------------|
G|-------------|
D|----2--------|
A|----2--------|
E|----0--------|

For the verse, have a clean setting on. Then when the chorus begins, 
crank up the distortion. Sorry if the last part of the solo is off.

            
            
Suggest correction
Creating personal tab
Creating personal tab
You can edit any tab online and save it as your Personal.

You can edit, replace or remove any tab part or add personal notes – all changes will be seen only by you.

Personal tabs can be accessed anytime from any device, even offline.
Learn more »
comments
print report bad tab
4 comments total. Showing first comments.
0 reply
DackAttac 84 Mar 31, 2011 08:53 AM

Solid! Only correction I'd have would be instead of the "6 5" at the end of the solo on the B string, it sounds more like "5 9 5".

0 reply
mangoyumm 41 Jul 28, 2011 08:04 AM

i love this band too!! they're so awesome and barely any of my friends know about them:( thank you!

+1 reply
FreeDo7 10 Apr 02, 2014 02:45 PM

A little correction for the solo :

E|-------------------------------------4----------------------------|
B|--------9------8-----7------6------2---5--------------------------|
G|----6------6------6-----6-------3---------------------------------|
D|------------------------------------------------------------------|
A|------------------------------------------------------------------|
E|------------------------------------------------------------------|

guest
You may want to rate the tab now too:
select rating
Wanna post a correction for this tab? Suggest correction