Oops, an error
Loading. Please wait.

You Get What You Give bass

version 1
version 1

Whole song

Interactive

17,282 views 27 this week
2 commentsread comments
1 2 3 4 5
x 16
add to favorites
×
Save as Personal and add changes to this tab that will be seen only by you. Learn more ›
×
You can save this tab as Personal to edit and correct it or add notes. All changes will be seen only by you. Learn more »
launch autoscroll
font size
0
reset
guitar tuner
backing track
0:00
0:00
edit
Autoscroll
slow
fast
+/-
esc
set tempo
stop
Author
Unregistered
Song:      You Get What You Give
Artist:    New Radicals
Tabbed By: Jason Mangan
Date:      2-12-2000

[Intro]
G|----------------|----------------|----------------|----------------|
D|----------------|----------------|------4---5-6-7-|----------------|
A|5-------5-5-----|3-------3-3-2-3-|5---------------|3-------3-3-2-3-|
E|----------------|----------------|----------------|----------------|
1 * 2 * 3 * 4 *  1 * 2 * 3 * 4 *  1 * 2 * 3 * 4 *  1 * 2 * 3 * 4 *

[1st Verse]
G|----------------|----------------|----------------|----------------|
D|----------------|--------2---3-5-|----------------|----------------|
A|5-------5-5---5-|3---------------|5-------5-5---5-|3-------3-----3-|
E|------------5---|----------------|----------------|----------3-5---|
1 * 2 * 3 * 4 *  1 * 2 * 3 * 4 *  1 * 2 * 3 * 4 *  1 * 2 * 3 * 4 *

G|----------------|----------------|----------------|----------------|
D|------4---5---7-|----------------|----------------|----------------|
A|5---------------|3-------3-3-----|----------------|----------------|
E|----------------|------------5-3-|0-------0-0---3-|5-------5-5-7-5-|
1 * 2 * 3 * 4 *  1 * 2 * 3 * 4 *  1 * 2 * 3 * 4 *  1 * 2 * 3 * 4 *

[2nd Verse]
G|----------------|----------------|----------------|----------------|
D|----------------|----------5/7---|------4---5-7---|----------------|
A|5---------5---5-|3-------3-------|5---------------|3-----3-3---2-3-|
E|----------------|----------------|----------------|----------3-----|
1 * 2 * 3 * 4 *  1 * 2 * 3 * 4 *  1 * 2 * 3 * 4 *  1 * 2 * 3 * 4 *

G|----------------|----------------|----------------|----------------|
D|------4---5---7-|----------------|----------------|----------------|
A|5---------------|3-----3-3-2-0---|----------------|----------------|
E|----------------|--------------3-|0-----0---2-3-4-|5-------5-5-5-3-|
1 * 2 * 3 * 4 *  1 * 2 * 3 * 4 *  1 * 2 * 3 * 4 *  1 * 2 * 3 * 4 *

[Pre-chorus]
G|----------------|----------------|----------------|------------------|
D|----------------|----------------|----------------|------------------|
A|----------------|----------------|----------------|------------7---7-|
E|2-------2-2--/5-|7-------5-5-----|3-------3-3---3-|5-----5-7/9---9---|
1 * 2 * 3 * 4 *  1 * 2 * 3 * 4 *  1 * 2 * 3 * 4 *  1 * 2 *   3 * 4 *

G|----------------|----------------|----------------|----------------|
D|----------7-----|----------------|----------------|----------------|
A|9-------9---9---|---------------/|12------1212-/12|-/12---/12--12\-|
E|--------------5-|7-------7-7-----|----------------|----------------|
1 * 2 * 3 * 4 *  1 * 2 * 3 * 4 *  1 * 2 * 3 * 4 *  1 * 2 * 3 * 4 *

[Chorus]
G|----------------|----------------|----------------|----------------|
D|----------------|----------------|----------------|----------------|
A|----------------|----------------|----------------|------7---------|
E|3---3---3-3-2-3-|5-------5-5-7-5-|2-------2-2-4-5-|7---7---5-5---5-|
1 * 2 * 3 * 4 *  1 * 2 * 3 * 4 *  1 * 2 * 3 * 4 *  1 * 2 * 3 * 4 *

G|----------------|------------------|----------------|----------------|
D|----------------|------------------|----------------|----------------|
A|----------5/7---|------------7---7-|9---9---9-7-----|----------------|
E|3-------3-------|5-----5-7/9---9---|------------9-5-|7-----7-5-5-----|
1 * 2 * 3 * 4 *  1 * 2 *   3 * 4 *  1 * 2 * 3 * 4 *  1 * 2 * 3 * 4 *

G|----------------|----------------|
D|----------------|----------------|
A|----------------|----------------|
E|3-------3-2-3-4-|5-----3-3-------|
1 * 2 * 3 * 4 *  1 * 2 * 3 * 4 *

G|----------------|----------------|----------------|----------------|
D|----------------|----------------|------4---5---7-|----------------|
A|5-------5-5---5-|3-------3-3-2-3-|5---------------|3-------3---3-4-|
E|----------------|----------------|----------------|----------5-----|
1 * 2 * 3 * 4 *  1 * 2 * 3 * 4 *  1 * 2 * 3 * 4 *  1 * 2 * 3 * 4 *

[3rd Verse]
G|----------------|----------------|----------------|----------------|
D|----------------|----------------|------4---5---7-|----------------|
A|5-------5-5---5-|3-------3-3-2-3-|5---------------|3-------3-----3-|
E|----------------|----------------|----------------|----------3-5---|
1 * 2 * 3 * 4 *  1 * 2 * 3 * 4 *  1 * 2 * 3 * 4 *  1 * 2 * 3 * 4 *

G|----------------|----------------|----------------|----------------|
D|----------------|----------------|----------------|----------------|
A|5---------------|3-------3-2-3-5-|7-----5h7-5-----|----------------|
E|------2---3-4-5-|----------------|------------7-6-|5-----5-5-5-5---|
1 * 2 * 3 * 4 *  1 * 2 * 3 * 4 *  1 * 2 * 3 * 4 *  1 * 2 * 3 * 4 *

[Pre-chorus]
G|----------------|----------------|----------------|------------------|
D|----------------|----------------|----------------|------------------|
A|----------------|----------------|--------------5/|12--12--12-17-19-\|
E|2-------2-2--/5-|7-----7-5-5-----|3-------3-3-----|------------------|
1 * 2 * 3 * 4 *  1 * 2 * 3 * 4 *  1 * 2 * 3 * 4 *  1 * 2 * 3  *  4 *

G|----------------|----------------|----------------|-----------------|
D|--------------4-|----------------|----------------|-----------------|
A|----------0h2---|2-----2-0-2p0-2-|12--------12-/12|-/12-/12-/12-12\-|
E|2-------2-------|----------------|----------------|-----------------|
1 * 2 * 3 * 4 *  1 * 2 * 3 * 4 *  1 * 2 * 3 * 4 *  1 * 2 * 3 *  4 *

[Chorus]
G|----------------|----------------|----------------|----------------|
D|----------------|----------------|----------------|----------------|
A|----------------|--------------7-|9-----7h9-7-----|----------------|
E|3-------3-3-2-3-|5-----5-5-7-9---|------------9-5-|7---7-9-5-5---5-|
1 * 2 * 3 * 4 *  1 * 2 * 3 * 4 *  1 * 2 * 3 * 4 *  1 * 2 * 3 * 4 *

G|------------------|------------------|----------------|----------------|
D|------------------|------------------|----------------|----------------|
A|--------------5-7-|----------------7-|9-----979-7-----|----------------|
E|3-------3-3/5-----|5-------5-5/7-9---|------------9-5-|7-------5-5---5-|
1 * 2 * 3   * 4 *  1 * 2 * 3   * 4 *  1 * 2 * 3 * 4 *  1 * 2 * 3 * 4 *

G|----------------|----------------|
D|----------------|----------------|
A|----------------|----------------|
E|3-------3-2-3-4-|5-----3-3-------|
1 * 2 * 3 * 4 *  1 * 2 * 3 * 4 *

[Interlude]
G|----------------|----------------|----------------|----------------|
D|----------------|----------------|----------------|----------------|
A|5-------5-------|------------2-3-|5------55-------|----------------|
E|----------0-2-3-|5-------3-3-----|----------0-2-3-|5-----5-3-3---5-|
1 * 2 * 3 * 4 *  1 * 2 * 3 * 4 *  1 * 2 * 3 * 4 *  1 * 2 * 3 * 4 *

G|----------------|--------------------|----------------|----------------|
D|----------------|--------------------|--------4-4-5-5-|7-----7-5-5-----|
A|5-------5-------|--------------4h5p4h|5---------------|----------------|
E|----------0-2-3-|5-----5-3-3-5-------|----------------|----------------|
1 * 2 * 3 * 4 *  1 * 2 * 3 * 4 *      1 * 2 * 3 * 4 *  1 * 2 * 3 * 4 *

G|----------------|----------------|----------------|----------------|
D|----------------|----------------|----------------|----------------|
A|5-------5-------|----------------|5-------5-------|----------------|
E|----------0-2-3-|5-----5-3-3---3-|----------0-2-3-|5-------5-5---5-|
1 * 2 * 3 * 4 *  1 * 2 * 3 * 4 *  1 * 2 * 3 * 4 *  1 * 2 * 3 * 4 *

G|-------------------|------------------------|------------------------|
D|-------------------|------------------12----|12----12-14-16-14-12-\--|
A|---------/12-12-10-|12-12---12-----12----12-|---12-------------------|
E|--5---5------------|------------------------|------------------------|
1 * 2 * 3 *  4  *   1  *  2  *  3  *  4  *   1  *  2  *  3  *  4  *

[Chorus]
G|----------------|------------------|----------------|----------------|
D|----------------|------------------|----------------|----------------|
A|----------------|--------------7-8-|9---------9-7---|----------------|
E|3-------3-3---3-|5-------5-7/9-----|--------------5-|7-----7-5-5-5---|
1 * 2 * 3 * 4 *  1 * 2 * 3   * 4 *  1 * 2 * 3 * 4 *  1 * 2 * 3 * 4 *

G|----------------|------------------|----------------|----------------|
D|----------------|------------------|----------------|----------------|
A|----------------|------------7---7-|9-----979-7-----|----------------|
E|3-------3-2-3---|5-----5-7/9---9---|------------9-5-|7-----7-5-5-0-5-|
1 * 2 * 3 * 4 *  1 * 2 *   3 * 4 *  1 * 2 * 3 * 4 *  1 * 2 * 3 * 4 *

G|------------------|----------------|------------------|----------------|
D|------3h4h5---5---|----------------|------------------|----------------|
A|------------------|----------------|------------------|----------------|
E|3-----------3---3-|5-----5-5-0-5-3-|2---4-4-5-5h7p5-6-|7-------5-5-----|
1 * 2 *   3 * 4 *  1 * 2 * 3 * 4 *  1 * 2 * 3   * 4 *  1 * 2 * 3 * 4 *

G|----------------|----------------|----------------|----------------|
D|--------5-4-----|----------------|----------------|----------------|
A|------------5---|----------------|----------------|----------------|
E|3-------------3-|5-----5-5-0-5-3-|2-------2-2-4-5-|7-----7-5-5-----|
1 * 2 * 3 * 4 *  1 * 2 * 3 * 4 *  1 * 2 * 3 * 4 *  1 * 2 * 3 * 4 *

G|----------------|----------------|----------14----|----12-11-12-11-9\--|
D|----5-4-5-4-----|----------------|-----/14--------|--------------------|
A|------------5---|--------------7-|9---------------|--------------------|
E|3-------------3-|5-----5-5-7-9---|----------------|--------------------|
1 * 2 * 3 * 4 *  1 * 2 * 3 * 4 *  1 * 2 * 3 * 4 *  1 * 2  *  3  *  4 *

G|----------------|----------------|----------------|----------------|
D|----------------|----------------|----------------|----------------|
A|----------------|--------------7-|----------------|------5---5-7-9-|
E|3-----3-3-2-3-4-|5-----5-5-7-9---|2-------2-2-5-6-|7---7---5-------|
1 * 2 * 3 * 4 *  1 * 2 * 3 * 4 *  1 * 2 * 3 * 4 *  1 * 2 * 3 * 4 *

[Outro]
G|-----------------|----------------|----------------|------------------|
D|-----------------|----------------|----------------|------------------|
A|10--10--10-9-7-5-|----------------|----------------|----------------7-|
E|-----------------|5-----345-345-3-|2-------2-2-4-5-|7-------5-5-7/9---|
1 * 2 * 3  * 4 *  1 * 2 * 3 * 4 *  1 * 2 * 3 * 4 *  1 * 2 * 3 *   4 *

G|------------------|-------------------|
D|-----/14--12h14---|----------------14-|
A|10-------------12-|--12--12--14-16----|
E|------------------|-------------------|
1 * 2 * 3 *  4 *   1 * 2 * 3 *  4  *

G|----------------------------14--|-----14--------14-------|
D|16---14h16---14h16------16------|--16--------16----------|
A|--------------------------------|------------------------|
E|--------------------------------|------------------------|begin fade
1   *   2   *   3   *   4   *    1  *  2  *  3  *  4  *

************************************

| /  Slide up
| \  Slide down
| h  Hammer-on
| p  Pull-off

************************************

            
            
Suggest correction
Creating personal tab
Creating personal tab
You can edit any tab online and save it as your Personal.

You can edit, replace or remove any tab part or add personal notes – all changes will be seen only by you.

Personal tabs can be accessed anytime from any device, even offline.
Learn more »
comments
print report bad tab
2 comments total.
0 reply
KingSquall802 10 Sep 25, 2010 05:06 PM

this tab is perfect ;) 5 stars! thanks.

0 reply
safesongs 10 Jul 29, 2014 03:07 PM

Great job on this. Thanks!

guest
Wanna post a correction for this tab? Suggest correction