Oops, an error
Loading. Please wait.

Jet Boy bass

1,880 views 1 this week
1 commentread comment
1 2 3 4 5
2 more votes to show rating
add to favorites
×
Save as Personal and add changes to this tab that will be seen only by you. Learn more ›
×
You can save this tab as Personal to edit and correct it or add notes. All changes will be seen only by you. Learn more »
launch autoscroll
font size
0
reset
guitar tuner
edit
Autoscroll
slow
fast
+/-
esc
set tempo
stop
Author
Difficulty
-------------------------------------------------------------------------------
			     Jet Boy - New York Dolls
-------------------------------------------------------------------------------

Tabbed By : Dave R.
e-mail: comrade80@hotmail.com

Tuning: EADG

The song is very simple and consists of only three parts, listen to the song and
you should have no problem figuring it out.

Chorus after claps:

G|---------------------------------------------------------------------------|
D|---------------------------------------------------------------------------|
A|---------------------------------------------------------------------------|
E|--5-5--3-3--5-5--3-3--5-5-5-5-3-3-3-3-5-5-5-5-3-3-----(Let last note ring)-|

Guitar Solo:
Play A over and over with some variations of playing the string open, if you listen to 
album you can hear a few variations.

G|---------------------------------------------------------------------------|
D|---------------------------------------------------------------------------|
A|-12-12-12-12-12-12-12-12-12-12-12-12-12-12-12-12-12-12-12-12-0-12-0-12-0-12|
E|---------------------------------------------------------------------------|

 or play

G|----------------------|
D|--7----7----7---------|
A|----------------------|
E|-----5----5----5------|


The bass part for the verse kicks in after the solo:

G|---------------------------------------------------------------------------|
D|---------------------------------------------------------------------------|
A|------------5------------5------------5-------------5----------------------|
E|--5--0--3------5--0--3-------5--0--3------5--0--3--------------------------|


That's the whole thing. Any questions or comments please email me.

| /  slide up
| \  slide down
| h  hammer-on
| p  pull-off
| ~  vibrato
| +  harmonic
| x  Mute note
===============================================================================

            
            
Suggest correction
Creating personal tab
Creating personal tab
You can edit any tab online and save it as your Personal.

You can edit, replace or remove any tab part or add personal notes – all changes will be seen only by you.

Personal tabs can be accessed anytime from any device, even offline.
Learn more »
Give kudos to tab author, rate the tab!
1 2 3 4 5
comments
print report bad tab
1 comment total.
0 reply
swave75 382 Nov 17, 2012 12:42 PM

Freakin' awesome!

guest
You may want to rate the tab now too:
select rating
Wanna post a correction for this tab? Suggest correction