Oops, an error
Loading. Please wait.

Escape chords

version 2
version 2

Whole song

124 views 3 this week
no commentswrite comment
1 2 3 4 5
3 more votes to show rating
add to favorites
×
Save as Personal and add changes to this tab that will be seen only by you. Learn more ›
×
You can save this tab as Personal to edit and correct it or add notes. All changes will be seen only by you. Learn more »
launch autoscroll
font size
0
reset
transpose
0
reset
display chords
guitar tuner
edit
Autoscroll
slow
fast
+/-
esc
set tempo
stop
Strumming Are these strumming patterns correct? Yes No
Intro / Chorus 143 bpm
1
&
2
&
3
&
4
&
5
&
6
&
7
&
8
&
Listen
Verse (palm mute) 143 bpm
1
&
2
&
3
&
4
&
Listen
-------------------------------------------------------------------------------
                             Escape - Newsboys
-------------------------------------------------------------------------------
Tabbed by:me 
E-mail: n/a 

Tuning: standard


[Intro:]

e|---------------------------------------------------------------------------|
B|---------------------------------------------------------------------------|
G|---------------------------------------------------------------------------|
D|--------------5--9------------------5-7------------------------------------|
A|-2-0-2-0-2-0--5--9-----2-0-2-0-2-0--5-7 -----------------------------------|
E|-2-0-2-0-2-0--3--7-----2-0-2-0-2-0--3-5------------------------------------|

e|---------------------------------------------------------------------------|
B|---------------------------------------------------------------------------|
G|---------------------------------------------------------------------------|
D|--------------5-7-------------------5--9-----------------------------------|
A|-2-0-2-0-2-0--5-7------2-0-2-0-2-0--5--9-----------------------------------|
E|-2-0-2-0-2-0--3-5------2-0-2-0-2-0--3--7-----------------------------------|




[Verse 1:]
(palm mute)

                            Em
You're being tempted by the same ol'

G                  Bm
You say it's under control

                        Em
Just remind me how you see so clearly

G     Bm 
Face down in a hole

Em
Press toward the light

         G          Bm
And the light will ground you

Em
Go with the flow

         G         Bm
And the flow will drown you

Em              G         Bm
Hey now, there's always an out


Em              G               Bm


[Chorus:]

e|---------------------------------------------------------------------------|
B|---------------------------------------------------------------------------|
G|---------------------------------------------------------------------------|
D|--------------5--9------------------5-7------------------------------------|
A|-2-0-2-0-2-0--5--9-----2-0-2-0-2-0--5-5------------------------------------|
E|-2-0-2-0-2-0--3--7-----2-0-2-0-2-0--3-5------------------------------------|
But if you get up, get up, get up   You can breakaway 

e|-----------------------|
B|-----------------------|
G|-----------------------|
D|--------------5--9-----|
A|-2-0-2-0-2-0--5--9-----|
E|-2-0-2-0-2-0--3--7-----|

And if you get out, get out, get out    Nothing can overtake

C            Am
Don't wait, escape




e|---------------------------------------------------------------------------|
B|---------------------------------------------------------------------------|
G|---------------------------------------------------------------------------|
D|--------------5--9------------------5-7------------------------------------|
A|-2-0-2-0-2-0--5--9-----2-0-2-0-2-0--5-7 -----------------------------------|
E|-2-0-2-0-2-0--3--7-----2-0-2-0-2-0--3-5------------------------------------|




[Verse 2:]

                      Em
We get beaten by the same sticks

G         Bm
Until we start to crack

                        Em
We get deceived by the same tricks

             G                     Bm
That's why the devil's bringing 'em back

Em        G           Bm
(He's bringing 'em back)






[Bridge:]  

E
Don't believe the hype
It's such a letdown

G
Don't believe the hype
It's such a letdown

A
Don't believe the hype
It's such a letdown

Bm
Don't believe the hype
It's such a letdown





[Solo:]

e|---------------------------------15-15-15-17-----12b-10---12b-10---12b-10--|
B|-17b 17b-17b-17b-17b-17b-17b-17b-------------15---------12--------12-----12|
G|---------------------------------------------------------------------------|
D|---------------------------------------------------------------------------|
A|---------------------------------------------------------------------------|
E|---------------------------------------------------------------------------|

e|12b-10---12b-10----12-10---------------------15-17b-b-b-b-b----------------|
B|-------12-------12-------12-10--15-17--15-17-------------------------------|
G|---------------------------------------------------------------------------|
D|---------------------------------------------------------------------------|
A|---------------------------------------------------------------------------|
E|---------------------------------------------------------------------------|

************************************

| b   Bend

************************************

            
            
Suggest correction
Creating personal tab
Creating personal tab
You can edit any tab online and save it as your Personal.

You can edit, replace or remove any tab part or add personal notes – all changes will be seen only by you.

Personal tabs can be accessed anytime from any device, even offline.
Learn more »
Give kudos to tab author, rate the tab!
1 2 3 4 5
comments
print report bad tab
guest
You may want to rate the tab now too:
select rating
Wanna post a correction for this tab? Suggest correction