Oops, an error
Loading. Please wait.

King Of The Underdogs bass

by Newsted
5,871 views 9 this week
5 commentsread comments
1 2 3 4 5
x 6
add to favorites
×
Save as Personal and add changes to this tab that will be seen only by you. Learn more ›
×
You can save this tab as Personal to edit and correct it or add notes. All changes will be seen only by you. Learn more »
launch autoscroll
font size
0
reset
guitar tuner
edit
Autoscroll
slow
fast
+/-
esc
set tempo
stop
Author
Difficulty
-----------------------------------------------------------------------------
                        KING OF THE UNDERDOGS - Newsted
-----------------------------------------------------------------------------
Tabbed by: MuddaBacon
E-mail: muddabacon@gmail.com

Tuning: Standard

Notes: I don't remember how many times you have repeat for each part, but you can figure 
it out yourself on YouTube!
G|--------------------------------------------------------------------------|
D|---------10---------13--------8--------12--------10----10----10----10-----|
A|-------9----9----12----12---7---7---10----10---9----9-----9-----9-----9---|
E|-1\7-7--------10----------5-------9----------7----------------------------|

G|--------------------------------------------------------------------------|
D|--------------------------------------------------------------------------|
A|--------------------------------------------------------------------------|
E|-0--0-0-1-2-0--0-0-7-6-0--0-0-4-5-0--0-0-3-2-0--0-0--0-0-0-0-3-0--0-0--0-0|

G|--------------------------------------------------------------------------|
D|--------------------------------------------------------------------------|
A|--------------------------------------------------------------------------|
E|-0-0-1-0--0-0--0-0-0-0-3-0--0-0--0--3-3-3-0-5-5-5--12/1-------------------|

| /  slide up
| \  slide down
| h  hammer-on
| p  pull-off
| ~  vibrato
| +  harmonic
| x  Mute note
=============================================================================

            
            
Suggest correction
Creating personal tab
Creating personal tab
You can edit any tab online and save it as your Personal.

You can edit, replace or remove any tab part or add personal notes – all changes will be seen only by you.

Personal tabs can be accessed anytime from any device, even offline.
Learn more »
comments
print report bad tab
5 comments total. Showing first comments.
+1 reply
everreddie 10 Aug 30, 2013 04:25 AM

In the first tab, you should play it one string down. Example:

Incorrect:
G|--------------------------------------------------------------------------|
D|---------10---------13--------8--------12--------10----10----10----10-----|
A|-------9----9----12----12---7---7---10----10---9----9-----9-----9-----9---|
E|-1\7-7--------10----------5-------9----------7----------------------------|
Correct:
G|---------10---------13--------8--------12--------10----10----10----10-----|
D|-------9----9----12----12---7---7---10----10---9----9-----9-----9-----9---|
A|-1\7-7--------10----------5-------9----------7----------------------------|
E|--------------------------------------------------------------------------|

+2 reply
everreddie 10 Aug 30, 2013 04:31 AM

Here's the correct one with the correct notes (I assume):

G|---------9----------12--------7--------10--------9-----9-----9-----9------|
D|-------9----9----12----12---7---7---10----10---9----9-----9-----9-----9---|
A|-1\7-7--------10----------5-------9----------7----------------------------|
E|--------------------------------------------------------------------------|

-1 reply
QwaQwaFruit 240 Nov 10, 2013 09:25 AM

This is not standard tuning. It's a half-step down.

guest
You may want to rate the tab now too:
select rating
Wanna post a correction for this tab? Suggest correction