Oops, an error
Loading. Please wait.

Uncomfortably Slow tab

version 1
version 1

Whole song

16,087 views 12 this week
4 commentsread comments
1 2 3 4 5
x 4
add to favorites
×
Save as Personal and add changes to this tab that will be seen only by you. Learn more ›
×
You can save this tab as Personal to edit and correct it or add notes. All changes will be seen only by you. Learn more »
launch autoscroll
font size
0
reset
how to read this tab
guitar tuner
edit
Autoscroll
slow
fast
+/-
esc
set tempo
stop
-------------------------------------------------------------------------------
                            UNCOMFORTABLY SLOW - NEWTON FAULKNER
-------------------------------------------------------------------------------
Tabbed by:GARY WOOD
Email:singlive@aol.com

Tuning:Standard - Capo on 4th
      Fsharp add 4th,9th
e|-------------------|
B|-----5-------------|
G|-------------------|
D|-----4-------------|
A|-----5-------------|
E|-----x-------------|
       EMaj7 (add 13th)
e|-----------------|
B|----(10)---------|
G|-----------------|
D|-----9-----------|
A|-----7-----------|
E|-----8-----------|
      G sharp minor
e|---------------|
B|---------------|
G|---------------|
D|----2----------|
A|----2----------|
E|---------------|
      B Major
e|-----3------|
B|-----3------|
G|------------|
D|------------|
A|-----2------|
E|-----3------|
      E Maj7
e|-------------|
B|-------------|
G|-------------|
D|-----2-------|
A|-----3-------|
E|-----x-------|
     F Sharp Major
e|-----2-------|
B|-----3-------|
G|-----2-------|
D|-------------|
A|-------------|
E|-----x-------|

Fret positions are counted up from the Capo (4th Fret)

Working on the last bit

F"add4th,9th               EMaj7
Travelling again, I know exactly how its gonna end?G"m                               
               EMaj
The routine daydreams starts as I get up?
I`m holding up the queue because my ticket won`t go through?I know it should be simple but, it`s not
F'Maj                    EMaj
So, don`t take my photograph?Cause I don`t wanna know how it looks to feel like this?As 
and people pass?
(working on this bit)
It feels like standing still but, I know?I`m just moving uncomfortably slow yeah slow

| /  slide up
| \  slide down
| h  hammer-on
| p  pull-off
| ~  vibrato
| +  harmonic
| x  Mute note
===============================================================================

            
            
Suggest correction
Creating personal tab
Creating personal tab
You can edit any tab online and save it as your Personal.

You can edit, replace or remove any tab part or add personal notes – all changes will be seen only by you.

Personal tabs can be accessed anytime from any device, even offline.
Learn more »
comments
print report bad tab
4 comments total. Showing first comments.
0 reply
Gary Wood 31 Sep 10, 2007 08:53 AM

Hi

Forgot to mention that I de-tune my guitar one tone, like Newton has in this song. So tabbed using DGCFAD. Capo on 2nd fret if using standard tuning.

Gary

0 reply
HiMyNameIsMatt 190 Oct 13, 2007 03:09 AM

this is good, do you know when you'll have the last bit done by?

+1 reply
damiennolan23 10 Nov 29, 2008 06:57 AM

Hey i figured out part of the last bit.
No idea what the first chord is called i got it by ear!Think its somethin like a Dm with a B bass

So hold down the 2nd fret on the A string, the 2nd fret on the G string, 3rd fret on the B string and 1st fret on the e string.
Looks like this.

e|-----1-------|
B|-----3-------|
G|-----2-------|
D|-------------|
A|-----2-------|
E|-----x-------|

Then the next two chords are
e|-------------|
B|-------------|
G|-----1-------|
D|-----2-------|
A|-----2-------|
E|-------------|

e|-------------|
B|-------------|
G|-------------|
D|-----2-------|
A|-------------|
E|-----x-------|

after this im stumped will post it up if i get it :D

guest
You may want to rate the tab now too:
select rating
Wanna post a correction for this tab? Suggest correction