Oops, an error
Loading. Please wait.

You Set The Rhythm bass

2,056 views 1 this week
no commentswrite comment
1 2 3 4 5
3 more votes to show rating
add to favorites
×
Save as Personal and add changes to this tab that will be seen only by you. Learn more ›
×
You can save this tab as Personal to edit and correct it or add notes. All changes will be seen only by you. Learn more »
launch autoscroll
font size
0
reset
guitar tuner
edit
Autoscroll
slow
fast
+/-
esc
set tempo
stop
Author
Difficulty
Song: You Set the Rhythm
Artist: NewWorldSon
Album: NewWorldSon
Tuning: EADG (Standard)
Tabbed By: 1ManRockBand

Intro:
G|-------------|
D|86-6---------|
A|--8-8686---4~|
E|--------86---|
B|-------------|

G|-----------------------|------------------------|-----------------------------------|
D|--(10)8----8(10)-------|---(10)8----8(10)-------|---(10)8----8(10)------------------|
A|-------(10)-----678----|--------(10)-----678----|--------(10)-----678-----66--------|
E|/8-----------------0668|0h8-----------------0665|0h8-----------------06688--8866331~|
B|-----------------------|------------------------|-----------------------------------|


Verse 1:
G|---------|--------|
D|---1-----|---1----|
A|321-313--|321-313-|  2x
E|-------10|-------1|
B|---------|--------|

G|---|---------|--|--------|
D|---|---1-----|--|---1----|
A|012|321-313--|12|321-313-|
E|---|-------10|--|-------1|
B|---|---------|--|--------|

G|---|------------------------------|
D|---|---1--------------------------|
A|012|321-313--------3311-----------|
E|---|-------10----------3311-01101/|
B|---|---------431-11---------------|


Chorus:
G|-----------------------|------------------------|------------------------------------------|
D|--(10)8----8(10)-------|---(10)8----8(10)-------|---(10)8----8(10)-------------------------|
A|-------(10)-----678----|--------(10)-----678----|--------(10)-----678-----66---------------|
E|/8-----------------0668|0h8-----------------0665|0h8-----------------06688--886633110h11567|
B|-----------------------|------------------------|------------------------------------------|

G|----------------------------------|
D|--(10)8----8(10)------------------|
A|-------(10)-----678-----66--------|
E|8------------------06688--8866331~|
B|----------------------------------|


Verse 2:
G|---------|---------|---------|---|-----------|
D|---1-----|---1-----|---1-----|---|---1----333|
A|321-313--|321-313--|321-313--|012|321-313----|
E|-------10|-------11|-------10|---|-------1---|
B|---------|---------|---------|---|-----------|

G|--------------------------|
D|--------------------------|
A|--------------------------|
E|01111111111111111222222221|
B|--------------------------|




Chorus:
G|-----------------------|------------------------|------------------------------------------|
D|--(10)8----8(10)-------|---(10)8----8(10)-------|---(10)8----8(10)-------------------------|
A|-------(10)-----678----|--------(10)-----678----|--------(10)-----678-----66---------------|
E|/8-----------------0668|0h8-----------------0665|0h8-----------------06688--886633110h11567|
B|-----------------------|------------------------|------------------------------------------|

G|----------------------|------------------------|--------------------------------------|
D|-(10)8----8(10)-------|---(10)8----8(10)-------|--(10)8----8(10)----------------------|
A|------(10)-----678----|--------(10)-----678----|-------(10)-----678-----66------------|
E|8-----------------0668|0h8-----------------0665|8------------------06688--886633110h11|
B|----------------------|------------------------|--------------------------------------|


Bridge Instrumental:
G|----------------------------------------------------------------------- -
D|----------------------------------------------------------------------- -
A|----------------------------------------------------------------------- -
E|0h11-111-111-111-1h22-222-222-222-2p11-111-111-111-1/33333333/55555555/ -
B|----------------------------------------------------------------------- -

- --------------------------------|
- --------------------------------|
- (12)(12)(12)(12)(12)(12)(12)(12)|
- --------------------------------|
- --------------------------------|


Chorus:
G|------------------------------------|------------------------------------| - -
D|---(12)(10)----(10)(12)-------------|------(12)(10)----(10)(12)----------|    |
A|-----------(12)--------89(10)-------|--------------(10)--------89(10)----|    |
E|0(10)------------------------088(10)|0h(10)--------------------------0887|    |
B|------------------------------------|------------------------------------|    |
                                                                                | 2x
G|-----------------------------------------------------------------|            |
D|------(10)(12)----(10)(12)---------------------------------------|            |
A|--------------(12)--------89(10)-----------88--------------------|            |
E|0h(10)--------------------------088(10)(10)—(10)(10)8855332h33789|            |
B|-----------------------------------------------------------------|         - -


Outro:
G|----------------------------------------------------------------|
D|----------------------------------------------------------------|
A|--------------------------------(10)(10)(10)(10)(10)(10)(10)(10)| 3x
E|(10)(10)(10)(10)(10)(10)(10)(10)--------------------------------|
B|----------------------------------------------------------------|

G|------------------------------------------------------------------------|
D|------------------------------------------------------------------------|
A|(12)(12)(12)(12)(12)(12)(12)(12)(12)(10)(10)(10)(10)(10)(10)(10)(10)(10)|
E|------------------------------------------------------------------------|
B|------------------------------------------------------------------------|

G|----------------------------------------|-----|
D|(12)(10)----(10)------------------------|-----|
A|--------(12)----(12)(10)(12)(10)--------|-----|
E|--------------------------------(12)(10)|98-6~| Hold last note and fade out
B|----------------------------------------|-----|

-----------------------------------------------------------------------------

/ - Slide Up
\ - Slide Down
h – Hammer-on
p – Pull-off

-----------------------------------------------------------------------------

*Just as a note:  The NewWorldSon bassist Rich Moore plays this song on a 5 string 
fretless bass, so if you can’t make it sound perfect, it’s probably because you 
don’t have a fretless.  
And don’t feel bad cause I don’t have one either :)

I’m still not sure if I got the main chorus/intro riff right.  I think it’s pretty 
close and it sounds ok, but I think it’s missing a note somewhere…

This is the first and only NewWorldSon bass tab on the Internet as far as I know.  
Hopefully it doesn’t stay that way for long.  Come on people tab away!


IF YOU DO NOT HAVE THIS ALBUM GET IT TODAY!!!!!!!!!!!!!!


Have fun with this tab, I can’t get the tune out of my head.  I’ve been humming it for days.


God bless,

/|\

            
            
Suggest correction
Creating personal tab
Creating personal tab
You can edit any tab online and save it as your Personal.

You can edit, replace or remove any tab part or add personal notes – all changes will be seen only by you.

Personal tabs can be accessed anytime from any device, even offline.
Learn more »
Give kudos to tab author, rate the tab!
1 2 3 4 5
comments
print report bad tab
guest
You may want to rate the tab now too:
select rating
Wanna post a correction for this tab? Suggest correction