Oops, an error
Loading. Please wait.

Dormir tab

20 views 1 this week
no commentswrite comment
1 2 3 4 5
3 more votes to show rating
add to favorites
×
Save as Personal and add changes to this tab that will be seen only by you. Learn more ›
×
You can save this tab as Personal to edit and correct it or add notes. All changes will be seen only by you. Learn more »
launch autoscroll
font size
0
reset
how to read this tab
guitar tuner
edit
Autoscroll
slow
fast
+/-
esc
set tempo
stop
 Este Intro acompaña en toda la canción, claro, menos en (*)

e|------------------------------------|-------------------------------------
B|------------------------------------|-------------------------------------
G|------4--------4--------4--------3--|------4--------4--------4--------3---
D|-------4--------4--------4--------4-|-------4--------4--------4--------4--
A|---2------0-----------------0-1-----|-1-2------0-----------------0-1------
E|------------2------2-3--------------|------------2------2-3---------------

e|------------------------------------|-------------------------------------
B|------------------------------------|-------------------------------------
G|------4--------4--------4--------3--|------3--------3--------4--------4---
D|-------4--------4--------4--------4-|-------4--------4--------4--------4--
A|-1-2------0-----------------0-1-----|-0-----------------------------------
E|------------2------2-3--------------|---2------3-2------2-3------2-3------

  Donde esta, donde hay    La nueva sensación que quiero
  Donde hay, donde esta    Un suero para el sueño eterno.
 
  Estoy bien, estoy mal    Lo radical no es lo bueno
  No hay paz, no hay paz   Prefiero, creo, el sueño eterno.

(*)
e|------------------------------------|---------------------------------------
B|------------------------------------|---------------------------------------
G|------4--------4--------4--------3--|------4--------4--------4---------4----
D|-------4--------4--------4--------4-|-------4--------4----0----4--0-2----4--
A|---2------1-0------0--------0-1-----|-1-2------2-4------4-------------------
E|---------------------3--------------|---------------------------------------

e|------------------------------------|--------------------------------------
B|------------------------------------|--------------------------------------
G|------4--------4--------4--------3--|------3--------3--------4--------4----
D|-------4--------4--------4--------4-|-------4--------4--------4--------4---
A|---2------1-0------0--------0-1-----|-0------------------------------------
E|---------------------3--------------|---2------3-2------2-3------2-3-------

  No busqué, no escarbe         Para encontrar mi descontrol
  No comprendo, no entiendo     PORQUE MIERDA ME PASA ESTO!

  Me han diagnosticado ya       Locura pronunciada
  Pero yo estoy muy consiente   Que lo que necesito es dormir... Es dormir...

                                                                 @(KyA)@
========================================================================
   NOTAS:
1° Ya que es solo una guitarra la que acompaña esta versión acústica, te
   recomiendo utilizar una pua (o tu uña mas dura ;)  y apretar muy bien
   las cuerdas.
2° Comentarios, sugerencias, preguntas, pedidos, escribe a:
                                                    xbuster2@
========================================================================
                                                                  (14938)

            
            
Suggest correction
Creating personal tab
Creating personal tab
You can edit any tab online and save it as your Personal.

You can edit, replace or remove any tab part or add personal notes – all changes will be seen only by you.

Personal tabs can be accessed anytime from any device, even offline.
Learn more »
Give kudos to tab author, rate the tab!
1 2 3 4 5
comments
print report bad tab
guest
Wanna post a correction for this tab? Suggest correction