Oops, an error
Loading. Please wait.

Sentido De Culpa tab

19 views 1 this week
no commentswrite comment
1 2 3 4 5
3 more votes to show rating
add to favorites
×
Save as Personal and add changes to this tab that will be seen only by you. Learn more ›
×
You can save this tab as Personal to edit and correct it or add notes. All changes will be seen only by you. Learn more »
launch autoscroll
font size
0
reset
how to read this tab
guitar tuner
edit
Autoscroll
slow
fast
+/-
esc
set tempo
stop
INTRO:

PRIMERA GUITARRA:
|------------------------------------------------------------------|
|-8~-7-8~-7~-7-8-10--7~-8-7~-8~-8-7~-8-7-8-7-7~-7-8-10-10~-10~-10~-|
|------------------------------------------------------------------|
|------------------------------------------------------------------|
|------------------------------------------------------------------|
|------------------------------------------------------------------|
 
SEGUNDA GUITARRA:
|-------------------------------------|
|-------------------------------------|
|---------0------------0--------------|
|-----4-----4---4--------4---4--------|
|---3---3-----3---3---3----3---3------|LAS VECES QUE SEA NECESARIO
|-0-----------------0-----------------|

1RA GUITARRA:, LA 2DA NO HACE NADA
|-----------------|
|--2-3-2-3-2-3----|
|-----------------|
|-----------------|
|-----------------|
|-----------------|


LUEGO VIENE ESTO:1RA
|------------------------------------------------|
|--7~-7-8-7~--7~-7-8-7~--7~-7-8-7~-7~-7-8-10-8-7-|
|------------------------------------------------|
|------------------------------------------------|X2
|------------------------------------------------|
|------------------------------------------------|

2DA:

|----7---5-----|
|----7---5-----|
|----9---7-----|X2
|----9---7-----|
|----7---5-----|
|----7---5-----|


VERSO:

DOS CAMINOS POR ELEGIR......

|-------------------------------------|
|-------------------------------------|
|---------0------------0--------------|
|-----4-----4---4--------4---4--------|
|---3---3-----3---3---3----3---3------|LAS VECES QUE SEA NECESARIO
|-0-----------------0-----------------|


DIME SI ES VERDAD QUE NO VALE NADA.......

|----7---5-----|
|----7---5-----|
|----9---7-----|X2
|----9---7-----|
|----7---5-----|
|----7---5-----|

PUENTE:
LA 2DA GUITARRA ESTO:
|----7---5-----|
|----7---5-----|
|----9---7-----|X2
|----9---7-----|
|----7---5-----|
|----7---5-----|

LA 1RA GUITARRA ESTO:
|------------------------------------------------|
|--7~-7-8-7~--7~-7-8-7~--7~-7-8-7~-7~-7-8-10-8-7-|
|------------------------------------------------|
|------------------------------------------------|X2
|------------------------------------------------|
|------------------------------------------------|


VERSO:
Y CADA VEZ MAS SIENTES QUE.......
|-------------------------------------|
|-------------------------------------|
|---------0------------0--------------|
|-----4-----4---4--------4---4--------|
|---3---3-----3---3---3----3---3------|LAS VECES QUE SEA NECESARIO
|-0-----------------0-----------------|

YA YA YA NO AHY VUELTA QUE DARLE....

|----7---5-----|
|----7---5-----|
|----9---7-----|X2
|----9---7-----|
|----7---5-----|
|----7---5-----|

PUENTE:
LA 2DA GUITARRA:
|----7---5-----|
|----7---5-----|
|----9---7-----|X2
|----9---7-----|
|----7---5-----|
|----7---5-----|

LA 1RA ALGO ASI:
|-----------------|
|--7-8-7-8-7-8----|
|-----------------|LAS VECES QUE SEA NECESARIO
|-----------------|
|-----------------|
|-----------------|


LUEGO: ES COMO UNA ESPECIE DE PAUSA DE LA CANCION:

2DA GUITARRA:
|--3---3---3---|
|--3---3---3---|
|--5---5---5---|
|--5---5---5---|
|--3---3---3---|
|--3---3---3---|


DIME SI ES VERDAD QUE NO....
|----7---5-----|
|----7---5-----|
|----9---7-----|X4
|----9---7-----|
|----7---5-----|
|----7---5-----|


 SI ALGUIEN TIENE LA TABLATURA DE NECESITO AYUDA MANDENMELA PE Y
 SIGAN MANDANDO MAS TABS DE ESTA GRAN BANDA CARAJO..

            
            
Suggest correction
Creating personal tab
Creating personal tab
You can edit any tab online and save it as your Personal.

You can edit, replace or remove any tab part or add personal notes – all changes will be seen only by you.

Personal tabs can be accessed anytime from any device, even offline.
Learn more »
Give kudos to tab author, rate the tab!
1 2 3 4 5
comments
print report bad tab
guest
Wanna post a correction for this tab? Suggest correction