Oops, an error
Loading. Please wait.

On The Loose tab

1,144 views 30 this week
1 commentread comment
1 2 3 4 5
x 3
add to favorites
×
Save as Personal and add changes to this tab that will be seen only by you. Learn more ›
×
You can save this tab as Personal to edit and correct it or add notes. All changes will be seen only by you. Learn more »
launch autoscroll
font size
0
reset
how to read this tab
guitar tuner
edit
Autoscroll
slow
fast
+/-
esc
set tempo
stop
-------------------------------------------------------------------------------
                           On The Loose - Niall Horan
                 https://www.youtube.com/watch?v=z8O0MPAx9KY
-------------------------------------------------------------------------------


[Intro]
     Bm                   Em7                    G                  A
e|---------------------|---------------------|----------------------|----------------------|
B|-----3--x----3----x--|-----8--x-----8---x--|----------------------|----------------------|
G|-----4--x----4----x--|-----7--x-----7---x--|-----4--x-----4----x--|-----6--x-----6----x--| 
D|-----4--x----4----x--|-----9--x-----9---x--|-----5--x-----5----x--|-----7--x-----7----x--| 2x
A|--2-----x--2------x--|--7-----x--7------x--|-----5--x-----5----x--|-----7--x-----7----x--|
E|--------x---------x--|--------x---------x--|--3-----x--3-------x--|--5-----x--5-------x--|

[Verse 1]
      Bm                   Em7                    G                  A
e|---------------------|---------------------|----------------------|----------------------|
B|-----3--x----3----x--|-----8--x-----8---x--|----------------------|----------------------|
G|-----4--x----4----x--|-----7--x-----7---x--|-----4--x-----4----x--|-----6--x-----6----x--|
D|-----4--x----4----x--|-----9--x-----9---x--|-----5--x-----5----x--|-----7--x-----7----x--| 2x
A|--2-----x--2------x--|--7-----x--7------x--|-----5--x-----5----x--|-----7--x-----7----x--|
E|--------x---------x--|--------x---------x--|--3-----x--3-------x--|--5-----x--5-------x--|

[Pre-Chorus]
      Bm                   Em7                    G                  A      
e|---------------------|---------------------|----------------------|----------------------|
B|-----3--x----3----x--|-----8--x-----8---x--|----------------------|----------------------|
G|-----4--x----4----x--|-----7--x-----7---x--|-----4--x-----4----x--|-----6--x-----6----x--|
D|-----4--x----4----x--|-----9--x-----9---x--|-----5--x-----5----x--|-----7--x-----7----x--| 2x
A|--2-----x--2------x--|--7-----x--7------x--|-----5--x-----5----x--|-----7--x-----7----x--|
E|--------x---------x--|--------x---------x--|--3-----x--3-------x--|--5-----x--5-------x--|

[Chorus]
        Bm                     Em                    G                     A
e|----------------------|----------------------|----------------------|----------------------|
B|-----3--x-----3----x--|-----0--x-----0----x--|-----0--x-----0----x--|-----2--x-----2----x--|
G|-----4--x-----4----x--|-----0--x-----0----x--|-----0--x-----0----x--|-----2--x-----2----x--|
D|-----4--x-----4----x--|-----2--x-----2----x--|-----0--x-----0----x--|-----2--x-----2----x--| 2x
A|--2-----x--2-------x--|--------x----------x--|--------x----------x--|--0-----x--0-------x--|
E|--------x----------x--|--0-----x--0-------x--|--3-----x--3-------x--|--------x----------x--|

[Verse 2]
        Bm                     Em                    G                     A                 
e|----------------------|----------------------|----------------------|----------------------|
B|-----3--x-----3----x--|-----0--x-----0----x--|-----0--x-----0----x--|-----2--x-----2----x--|
G|-----4--x-----4----x--|-----0--x-----0----x--|-----0--x-----0----x--|-----2--x-----2----x--|
D|-----4--x-----4----x--|-----2--x-----2----x--|-----0--x-----0----x--|-----2--x-----2----x--| 
A|--2-----x--2-------x--|--------x----------x--|--------x----------x--|--0-----x--0-------x--|
E|--------x----------x--|--0-----x--0-------x--|--3-----x--3-------x--|--------x----------x--|

      Bm                   Em7                    G                  A
e|-------------------|---------------------|----------------------|----------------------|
B|-----3--x--3----x--|-----8--x-----8---x--|----------------------|----------------------|
G|-----4--x--4----x--|-----7--x-----7---x--|-----4--x-----4----x--|-----6--x-----6----x--|
D|-----4--x--4----x--|-----9--x-----9---x--|-----5--x-----5----x--|-----7--x-----7----x--| 
A|--2-----x-------x--|--7-----x--7------x--|-----5--x-----5----x--|-----7--x-----7----x--|
E|--------x-------x--|--------x---------x--|--3-----x--3-------x--|--5-----x--5-------x--|


[Pre-Chorus]

      Bm                   Em7                    G                  A
e|-------------------|---------------------|----------------------|----------------------|
B|-----3--x--3----x--|-----8--x-----8---x--|----------------------|----------------------|
G|-----4--x--4----x--|-----7--x-----7---x--|-----4--x-----4----x--|-----6--x-----6----x--|
D|-----4--x--4----x--|-----9--x-----9---x--|-----5--x-----5----x--|-----7--x-----7----x--| 2x
A|--2-----x-------x--|--7-----x--7------x--|-----5--x-----5----x--|-----7--x-----7----x--|
E|--------x-------x--|--------x---------x--|--3-----x--3-------x--|--5-----x--5-------x--|

[Chorus]

      Bm                   Em7                    G                  A
e|-------------------|---------------------|----------------------|----------------------|
B|-----3--x--3----x--|-----8--x-----8---x--|----------------------|----------------------|
G|-----4--x--4----x--|-----7--x-----7---x--|-----4--x-----4----x--|-----6--x-----6----x--|
D|-----4--x--4----x--|-----9--x-----9---x--|-----5--x-----5----x--|-----7--x-----7----x--| 
A|--2-----x-------x--|--7-----x--7------x--|-----5--x-----5----x--|-----7--x-----7----x--|
E|--------x-------x--|--------x---------x--|--3-----x--3-------x--|--5-----x--5-------x--|

        Bm                   Em                       G                   A                            
e|----------------------|----------------------|----------------------|----------------------|
B|-----3--x-----3----x--|-----0--x-----0----x--|-----0--x-----0----x--|-----2--x-----2----x--|
G|-----4--x-----4----x--|-----0--x-----0----x--|-----0--x-----0----x--|-----2--x-----2----x--|
D|-----4--x-----4----x--|-----2--x-----2----x--|-----0--x-----0----x--|-----2--x-----2----x--| 
A|--2-----x--2-------x--|--------x----------x--|--------x----------x--|--0-----x--0-------x--|
E|--------x----------x--|--0-----x--0-------x--|--3-----x--3-------x--|--------x----------x--|

[Bridge]

      Bm                   Em7                    G                  A
e|-------------------|---------------------|----------------------|----------------------|
B|-----3--x--3----x--|-----8--x-----8---x--|----------------------|----------------------|
G|-----4--x--4----x--|-----7--x-----7---x--|-----4--x-----4----x--|-----6--x-----6----x--|
D|-----4--x--4----x--|-----9--x-----9---x--|-----5--x-----5----x--|-----7--x-----7----x--| 
A|--2-----x-------x--|--7-----x--7------x--|-----5--x-----5----x--|-----7--x-----7----x--|
E|--------x-------x--|--------x---------x--|--3-----x--3-------x--|--5-----x--5-------x--|

        Bm                   Em                       G                   A                            
e|----------------------|----------------------|----------------------|----------------------|
B|-----3--x-----3----x--|-----0--x-----0----x--|-----0--x-----0----x--|-----2--x-----2----x--|
G|-----4--x-----4----x--|-----0--x-----0----x--|-----0--x-----0----x--|-----2--x-----2----x--|
D|-----4--x-----4----x--|-----2--x-----2----x--|-----0--x-----0----x--|-----2--x-----2----x--| 
A|--2-----x--2-------x--|--------x----------x--|--------x----------x--|--0-----x--0-------x--|
E|--------x----------x--|--0-----x--0-------x--|--3-----x--3-------x--|--------x----------x--|

[Pre-Chorus]

      Bm                   Em7                      G                  A
e|---------------------|---------------------|----------------------|----------------------|
B|-----3--x----3----x--|-----8--x-----8---x--|----------------------|----------------------|
G|-----4--x----4----x--|-----7--x-----7---x--|-----4--x-----4----x--|-----6--x-----6----x--|
D|-----4--x----4----x--|-----9--x-----9---x--|-----5--x-----5----x--|-----7--x-----7----x--| 2x
A|--2-----x--2------x--|--7-----x--7------x--|-----5--x-----5----x--|-----7--x-----7----x--|
E|--------x---------x--|--------x---------x--|--3-----x--3-------x--|--5-----x--5-------x--|

      Bm                   Em7                    G                  A
e|-------------------|---------------------|----------------------|----------------------|
B|-----3--x--3----x--|-----8--x-----8---x--|----------------------|----------------------|
G|-----4--x--4----x--|-----7--x-----7---x--|-----4--x-----4----x--|-----6--x-----6----x--|
D|-----4--x--4----x--|-----9--x-----9---x--|-----5--x-----5----x--|-----7--x-----7----x--| 
A|--2-----x-------x--|--7-----x--7------x--|-----5--x-----5----x--|-----7--x-----7----x--|
E|--------x-------x--|--------x---------x--|--3-----x--3-------x--|--5-----x--5-------x--|

        Bm                   Em                       G                   A                            
e|----------------------|----------------------|----------------------|----------------------|
B|-----3--x-----3----x--|-----0--x-----0----x--|-----0--x-----0----x--|-----2--x-----2----x--|
G|-----4--x-----4----x--|-----0--x-----0----x--|-----0--x-----0----x--|-----2--x-----2----x--|
D|-----4--x-----4----x--|-----2--x-----2----x--|-----0--x-----0----x--|-----2--x-----2----x--| 
A|--2-----x--2-------x--|--------x----------x--|--------x----------x--|--0-----x--0-------x--|
E|--------x----------x--|--0-----x--0-------x--|--3-----x--3-------x--|--------x----------x--|

[Outro]

      Bm                   Em7                    G                  A
e|-------------------|---------------------|----------------------|----------------------|
B|-----3--x--3----x--|-----8--x-----8---x--|----------------------|----------------------|
G|-----4--x--4----x--|-----7--x-----7---x--|-----4--x-----4----x--|-----6--x-----6----x--|
D|-----4--x--4----x--|-----9--x-----9---x--|-----5--x-----5----x--|-----7--x-----7----x--| 2x
A|--2-----x-------x--|--7-----x--7------x--|-----5--x-----5----x--|-----7--x-----7----x--|
E|--------x-------x--|--------x---------x--|--3-----x--3-------x--|--5-----x--5-------x--|

*******************

| x Dead note/Slap

*******************

            
            
Suggest correction
Creating personal tab
Creating personal tab
You can edit any tab online and save it as your Personal.

You can edit, replace or remove any tab part or add personal notes – all changes will be seen only by you.

Personal tabs can be accessed anytime from any device, even offline.
Learn more »
Give kudos to tab author, rate the tab!
1 2 3 4 5
comments
print report bad tab
1 comment total.
0 reply
ClaraJays 52 Oct 19, 2017 01:55 PM

Thanks for the tab, mate ! Have you figured out the ending guitar solo of the song ? I'm having hard time trying ^^

guest
You may want to rate the tab now too:
select rating
Wanna post a correction for this tab? Suggest correction