Oops, an error
Loading. Please wait.

En El Ultimo Trago tab

version 2
version 2

Whole song

71 views 1 this week
no commentswrite comment
1 2 3 4 5
3 more votes to show rating
add to favorites
×
Save as Personal and add changes to this tab that will be seen only by you. Learn more ›
×
You can save this tab as Personal to edit and correct it or add notes. All changes will be seen only by you. Learn more »
launch autoscroll
font size
0
reset
how to read this tab
guitar tuner
edit
Autoscroll
slow
fast
+/-
esc
set tempo
stop
Es mi tercer transcripción ,espero que les guste, 
y si tengo errores díganmelos. 

Acordes:
        EADGBe
D     : 000232
D#dim : 004545
Em    : 022000
Em/D  : 020000
A     : 002220
A7    : 002020
G     : 320033
G/F#  : 200033
 
>
  \ D  /         \D#dim/      \ Em /           \ A7 /
1º||||||        4º||1|2|    1º||||||         2º||1|2|
  |||1|2          |||3|4      |23|||           ||1|2|
  ||||3|          ||||||      ||||||           ||1|2|
                                               ||1|2|
E----------------------------0----------------------------------]
A---------------------------------------------------------------]
D---0-------------4-----------------2/4---------2/3/4/5-/-3/2---]
G----2-------2------5-----------0-------------------------------]
B-----3----3---------4---0--------0------0------2/3/4/5-/-3/2---]
e------2--------------5--------------------0--------------------]
                               
   \ D  /   
 1º||||||                       
   |||1|2
   ||||3|

E-------------------------]
A-------------------------]
D----0--------------------]
G---------2---------------]
B--------------3----3-----]
e--------------2h3--2-----]

>

E--------------------------]
A------0----2----4---------]
D---------------------0----]
G--------------------------]
B--------------------------]
e--------------------------]

>

E------------------------]
A------------------------]
D------3--/--4--/--5-----]
G------------------------]
B------3--/--4--/--5-----]
e------------------------]

>

E-------------------------]
A-------------------------]
D--------0----------------]
G----------------2--------]
B-----------------3-------]
e------------------2------]

>

E--------------------------------]
A---0----------------------------]
D-------------------0-----0------]
G-----0-------0--------2----2----]
B-------2---2----------3----3----]
e---------0------------2----2----]


     D      D#dim      Em  Em/D
Tómate esta botella conmigo  
        A       RIFF2     D   
y en el último trago nos vamos, 
        D        D#dim   Em   Em/D  
quiero ver a que sabe tu olvido  
       A         RIFF2     D
sin poner en mis ojos tus manos.        

RIFF3

     D        D#dim   Em   Em/D
Esta noche no voy a rogarte, 
      A        RIFF2    D
esta noche te vas de deveras, 
       D       D#dim     Em   Em/D
que difícil tener que dejarte  
        A         RIFF2       D
sin pensar que tu ya no me quieras.


RIFF3

         G      G/F#     Em    Em/D  
Nada me han enseñado los años,  
         A          RIFF2      D
siempre caigo en los mismos errores, 
      D       D#dim        Em  Em/D
otra vez a brindar con extraños  
      A            RIFF2     D
y a llorar por los mismos dolores.


RIFF4

      D       D#dim     Em  Em/D
Tómate esta botella conmigo  
        A       RIFF1      D
y en el último trago me besas, 
     D          D#dim     Em   Em/D
esperamos que no haya testigos,  
         A       RIFF1     D
por si acaso te diera vergüenza.


RIFF3

          D        D#dim      Em   Em/D
Si algún día sin querer tropezamos, 
        A           RIFF1       D
no te agaches ni me hables de frente, 
       D      D#dim      Em  Em/D
simplemente la mano nos damos 
       A         RIFF1    D
y después que murmure la gente.

         G      G/F#     Em   Em/D 
Nada me han enseñado los años,  
         A           RIFF1     D        
siempre caigo en los mismos errores, 
      D       D#dim       Em    Em/D
otra vez a brindar con extraños  
        A          RIFF1     D
y a llorar por los mismos dolores.


      D      D#dim      Em   Em/D
Tómate esta botella conmigo 
        A       RIFF1           
y en el último trago nos vamos.

>
                           (esto se rasguea rápido y 
                           después se apaga el sonido)

E-----------------------------------------------------]
A--0------2------4--------------0---------------------]
D-------------------2-----0------2---------0---0------]
G---------------------------------2---------2---2-----]
B----------------------------------2---------3---3----] 
e-----------------------------------0---------2---2---]

Escuchen la canción...


Hasta luegooooo!

Dudas, comentarios o correcciones
 jasoman54@

            
            
Suggest correction
Creating personal tab
Creating personal tab
You can edit any tab online and save it as your Personal.

You can edit, replace or remove any tab part or add personal notes – all changes will be seen only by you.

Personal tabs can be accessed anytime from any device, even offline.
Learn more »
Give kudos to tab author, rate the tab!
1 2 3 4 5
comments
print report bad tab
guest
Wanna post a correction for this tab? Suggest correction