Oops, an error
Loading. Please wait.

Paso La Vida Pensando tab

version 2
version 2

Whole song

73 views 1 this week
no commentswrite comment
1 2 3 4 5
3 more votes to show rating
add to favorites
×
Save as Personal and add changes to this tab that will be seen only by you. Learn more ›
×
You can save this tab as Personal to edit and correct it or add notes. All changes will be seen only by you. Learn more »
launch autoscroll
font size
0
reset
how to read this tab
guitar tuner
edit
Autoscroll
slow
fast
+/-
esc
set tempo
stop
Esta es la correccion de la anterior la hice inspirado
a las verdades que muestra esta canción. Se la Dedico
la Olguita de la UAM una broder que toca guitar y que
es bella... lastima tiene dueño...

Como esta cancion es casi solo arpegio les recomiendo
Hacer siempre el acorde que sale arriba del tab. y seguir
las indicaiones.

Introduccion:
   C                     D7sus4/F
1--0---------0------------------3---
2----1-3-------1-3-----------1--1---
3--------0---------0-------2----2---
4------------------------3------3---
5--3--------------------------------
6-----------------------------------

   C                     Am6
1--0---------0------------------0---
2----1-3-------1-3-----------1--1---
3--------0---------0-------2----2---
4------------------------3------3---
5--3--------------------------------
6-----------------------------------


   C      Cmaj7     Am      A9        D7sus4    Dm7     G
1-------------0-----------------0---------3-----1--1---------------------
2-----1---0-------------1---0-------------------1----1------0----1---3---
3---0---0---0---0-----2---2---2---2-----2---2---2---------0-0-0--0-0-0-0-
4-------------------------------------0---------0------------------------
5--3------3---------0----------------------------------------------------
6-------------------------------------------------------3----------------
Yo te llevo muy     dentro de mi la locura que       vivi por ti

   C      Cmaj7     Am      A9        Dm7       D7sus4  G
1-------------0-----------------0---------1-----3-3-----3-3-3-3-----------
2-----1---0-------------1---0-------------------1-1-----0-0-0-0-----------
3---0---0---0---0-----2---2---2---2-----2---2---2-2-----0-0-0-0-----------
4-------------------------------------0---------0-0-----0-0-0-0-----------
5--3------3---------0-------0---------------------------2-2-2-2-----------
6-------------------------------------------------------3-3-3-3-----------
Aun se alberga en mi corazon Te deje partir, no me explico la razon,porque

C
Paso la vida pensando
Am                              Dm7
paso las noches soñando con tu amor
   G
eiehhhh.....porque

C
Paso la vida pensando
Am                              Dm7
paso las noches soñando con tu amor
        G#  G
Con tu amor
   C                     D7sus4/F
1--0---------0------------------3--3------
2----1-3-------1-3-----------1--1----1----
3--------0---------0-------2----2------2--
4------------------------3------3---------
5--3--------------------------------------
6-----------------------------------------
con tu amor

   C                     Am6
1--0---------0------------------0---(0)---
2----1-3-------1-3-----------1--1---(1)---
3--------0---------0-------2----2---(2)---
4------------------------3------3---(3)---
5--3--------------------------------------
6-----------------------------------------


   C      Cmaj7       Am      A9        Dm7     D7sus4  G
1---------------0--------------0--0--------1----3-------3---
2-----1---1p0---0---------1----0--0-------------1-------3---
3---0-0-0-0---0---0-----2-2-2--2----2----2---2--2-------0---
4------------------------------2--------0-------0-------0---
5--3------3------------0-------0------------------------2---
6-------------------------------------------------------3---
Fue mi orgullo o mi      estupidez  que me entorpecio,no tuve sensatez

         C    Cmaj7      Am  A9
quiza no supe        valorar    tu amor

       Dm7 D7sus4             G
aunque te        ofendí te suplico tu perdon...porque

C
Paso la vida pensando
Am                              Dm7
paso las noches soñando con tu amor
   G
eiehhhh.....porque

C
Paso la vida pensando
Am                              Dm7
paso las noches soñando con tu amor
        G#  G  C
Con tu amor    con tu amor

Am         Am6          Am       Am6
Vienen a mi mente tantas cosas
Em            E5        Em7*   E E4 Esus
que ni yo me puedo perdonar
Am           Am6         Am
pero nunca nunca te he dejado
    Dm7   G
de amar

   C      Cmaj7     Am      A9        Dm7       D7sus4     G
1-------------0-----------------0---------1-----3--(3)-----3---------
2-----1---0-------------1---0-------------------1--(1)-----3---------
3---0---0---0---0-----2---2---2---2-----2---2---2--(2)-----0---------
4-------------------------------------0---------0--(0)-----0---------
5--3------3---------0-------0------------------------------2---------
6----------------------------------------------------------3---------
Yo te llevo muy     dentro de mi     y si tu me llevas muy dentro de ti

           C     Cmaj7          Am       A9
los dos sufrimos         igual decepción
         Dm7    D7sus4        G
y el separarnos       fue una tonta decision...porque

C
Paso la vida pensando
Am                              Dm7
paso las noches soñando con tu amor
   G
eiehhhh.....porque

C
Paso la vida pensando
Am                              Dm7
paso las noches soñando con tu amor
   G
eiehhhh.....porque

C
Paso la vida pensando
Am                              Dm7
paso las noches soñando con tu amor
   G
eiehhhh.....porque

C
Paso la vida pensando
Am                              Dm7
paso las noches soñando con tu amor
        G#  G  C
Con tu amor    con tu amor


Final:
     C           Dm7           G
1-----------0---------------------------3---0-0-0-0-0-0-0--|
2---------1-----------6-6-------------3-----1-1-1-1-0-0-1--|
3-------0---------2/5-----5---------0-------0-0-0-0-0-0-0--|
4-----2---------0-----------------0---------2-2-2-2-2-2-2--|
5---3---------------------------2-----------3-3-3-3-3-3-3--|
6-----------------------------3-------------3-3-3-3-3-3-3--|


E4         022200
E5         021000
Em7*       020000
Esus       022400
Cmaj7      332000
A9         002200
Am6        x03210
D7sus4     X00213
D7sus4/F   X03213
C          332010
G          320003
Am         002210
Dm7        x00211
G#         355433


Correcciones preguntas dudas o cualquier mierd@ de guitarra
me pueden escribir a thecool_augusto@hotmail.

     *        *    *****    *******  ***   *****   *****
      *    *  *   *     *      *      *   **      *     *
    *  *  *   *  *   *   *     *      *   *      *   *   *
    *    *    *  *  * *  *     *      *   *      *  * *  *
    *    *    *  *   *   * *   *      *   *      *   *   *
    *         *   *     *  **  *      *   **      *     *
  ***       ***    *****    ****    *****  *****   *****   *

            
            
Suggest correction
Creating personal tab
Creating personal tab
You can edit any tab online and save it as your Personal.

You can edit, replace or remove any tab part or add personal notes – all changes will be seen only by you.

Personal tabs can be accessed anytime from any device, even offline.
Learn more »
Give kudos to tab author, rate the tab!
1 2 3 4 5
comments
print report bad tab
guest
Wanna post a correction for this tab? Suggest correction