Oops, an error
Loading. Please wait.

Siempre tab

13 views 1 this week
no commentswrite comment
1 2 3 4 5
3 more votes to show rating
add to favorites
×
Save as Personal and add changes to this tab that will be seen only by you. Learn more ›
×
You can save this tab as Personal to edit and correct it or add notes. All changes will be seen only by you. Learn more »
launch autoscroll
font size
0
reset
how to read this tab
guitar tuner
edit
Autoscroll
slow
fast
+/-
esc
set tempo
stop
INTRO
    G                         C                              C/B                     Am D
e ----------------------------------------------------------------------------------------|
B --0--------0--1-p-0---------3--------3--------1-p-0---------3--------1-p-0---------1--3-|
G --0-----0------------2-p-0-----0--------0------------2-p-0-----0------------2-p-0--0--2-|
D --0--0----------------------------2--------2----------------------0----------------2--0-|
A ----------------------------3--------3----------------------2----------------------0----|
E --3-------------------------------------------------------------------------------------|

         G
Sólo Dios sabe
                               C    C/B
cuanto te he buscado y no te hallé,
Am              
busco en tu mirada
D7/F#                   G    G/F#
por si hay una mínima señal,
Em              Em/D                                  
no pienso rendirme 
C                     G   G/F#
ya son muchas años tras de tí,
Em             Em/D            
este amigo te ama
C          Am7         A7        D7/F#
eres el sosiego que la vida le negó.


      G         
Tengo amor que llora triste 
       C            C7B             
porque no te puedo amar,
       Am            D7/F#
me has quitado media vida
                  G   G/F#
es amor sin completar
     Em               Em/D
como flecha sin un blanco
       C           C/B
como invierno sin llover
     Am7           D7/F#
como barco en un desierto
     C           G
como fruta sin comer.

PUENTE
    G                         C                              C/B                     Am D
e ----------------------------------------------------------------------------------------|
B --0--------0--1-p-0---------3--------3--------1-p-0---------3--------1-p-0---------1--3-|
G --0-----0------------2-p-0-----0--------0------------2-p-0-----0------------2-p-0--0--2-|
D --0--0----------------------------2--------2----------------------0----------------2--0-|
A ----------------------------3--------3----------------------2----------------------0----|
E --3-------------------------------------------------------------------------------------|

     G
Sólo Dios sabe
                          C    C/B
como me ha mordido este dolor,
Am               
de verte con otros
D7/F#                    G   G/F#
de ser confidente y nada más,
Em           Em/D
con el pensamiento 
C                    G    G/F
muchas noches fuiste mi mujer
Em        Em/D
tu palara siembra
C            Am7         A7            D7/F#   Am7  D7
mi fiebre amorosa que no tiene a donde ir.


      G         
Tengo amor que llora triste 
       C            C/B             
porque no te puedo amar,
       Am            D7/F#
me has quitado media vida
                  G   G/F#
es amor sin completar
     Em               Em/D
como flecha sin un blanco
       C           C/B
como invierno sin llover
     Am7           D7/F#
como barco en un desierto
     C           G    D7
como fruta sin comer.
      G         
tengo amor que llora triste 
       C            C/B             
porque no te puedo amar,
       Am            D7/F#
me has quitado media vida
                  G   G/F#
es amor sin completar
     Em               Em/D
como flecha sin un blanco
       C           C/B
como invierno sin llover
     Am7           D7/F#
como barco en un desierto
     C           G    C2  Gg
como fruta sin comer.

            
            
Suggest correction
Creating personal tab
Creating personal tab
You can edit any tab online and save it as your Personal.

You can edit, replace or remove any tab part or add personal notes – all changes will be seen only by you.

Personal tabs can be accessed anytime from any device, even offline.
Learn more »
Give kudos to tab author, rate the tab!
1 2 3 4 5
comments
print report bad tab
guest
Wanna post a correction for this tab? Suggest correction