Oops, an error
Loading. Please wait.

Tan Solo tab

version 2
version 2

Whole song

33 views 1 this week
no commentswrite comment
1 2 3 4 5
3 more votes to show rating
add to favorites
×
Save as Personal and add changes to this tab that will be seen only by you. Learn more ›
×
You can save this tab as Personal to edit and correct it or add notes. All changes will be seen only by you. Learn more »
launch autoscroll
font size
0
reset
how to read this tab
guitar tuner
edit
Autoscroll
slow
fast
+/-
esc
set tempo
stop
Esta canción es una de las que más me gustan del señor Dionisio.

ACORDES:
      EADGBe
C9  : X32430
Bm  : 224432
Em  : 022000
E   : 022100
E7  : 020100
Am  : 002210
C   : 032010
D4  : X00233
G   : 320033

>

E|-----------------------------------------------------|
A|----3----------------------3-------------------------|
D|-----2----------------------2------------------------|
G|------4----4---4----4--------4----4----4----4--------|   
B|--------3----3----3-----------3-----3----3-----------|
e|-------------------------0-----------------------0---|


E|--------------------------------------------------|
A|----3-------------------------3-------------------|
D|-----2-------------------------2------------------|
G|------4---4----4----4-----------4---4-----4-------|
B|-------3----3----3---------------3-----3----------|
e|----------------------0-----------------------0---|


>
                               G
E--------------------3h5h3------------3--------------|
A-------------2h3h2--------------------2-------------|
D------0h2h0----------------------------0------------|
G----------------------------------------0-----------|
B-----------------------------------------3----------|
e------------------------------------------3---------|


 C9              
Salgo a caminar, me detengo un instante
 Bm                    Em
miro hacia atrás para verte venir 
   Am             C     D4 
y me encuentro tan solo.

 C9
Alguna vez has estado en el cielo 
 Bm                Em
alguna vez has sentido el amor
   Am             C     D4
y me encuentro tan solo.


(el coro y la última estrofa van con rasgueo)
       C9
COROBm                    Em
de alguna manera va llegando a tu lado 
   Am             C     D4 
y me encuentro tan solo>>

>

 C9
Salgo a caminar tu sonrisa en mi cara
       Bm                     Em
es una sádica figura que me atrapa al partir
   Am             C     D4
y me encuentro tan solo.


>


 C9
alguna vez has amado despacio,
 Bm              Em
alguna vez entregaste tu piel
   Am             C     D4
y me encuentro tan solo,
    Em            E     E7    
y me encuentro tan solo,
   Am             C    D4      >  >
y me encuentro tan solo,  sin ti...


hasta luegoooooooo!

            
            
Suggest correction
Creating personal tab
Creating personal tab
You can edit any tab online and save it as your Personal.

You can edit, replace or remove any tab part or add personal notes – all changes will be seen only by you.

Personal tabs can be accessed anytime from any device, even offline.
Learn more »
Give kudos to tab author, rate the tab!
1 2 3 4 5
comments
print report bad tab
guest
Wanna post a correction for this tab? Suggest correction