Oops, an error
Loading. Please wait.

Tan Solo tab

version 3
version 3

Whole song

26 views 1 this week
no commentswrite comment
1 2 3 4 5
3 more votes to show rating
add to favorites
×
Save as Personal and add changes to this tab that will be seen only by you. Learn more ›
×
You can save this tab as Personal to edit and correct it or add notes. All changes will be seen only by you. Learn more »
launch autoscroll
font size
0
reset
how to read this tab
guitar tuner
edit
Autoscroll
slow
fast
+/-
esc
set tempo
stop
ESTA ES MI SEGUNDA TRANSCRIPCION, SI TENGO ALGUNOS ERRORES 
AGAMELOS SABER

ACORDES:

CUERDAS       654321
NOTAS         EADGBe

C9            X32430
Bm7           224232
Em            022000
Esus4         022200
E7            020130
Am            002210
C             032010
D7sus4        000213
G             320033
C/B           022010  BAJO 5ta CUERDA
Cmaj7         335453
D7            000212


INTRO:
      C9                     C9
E|-----------------------------------------------------|
A|----3----------------------3-------------------------|
D|-----2----------------------2------------------------|
G|------4----4---4----4--------4----4----4----4--------|   
B|--------3----3----3-----------3-----3----3-----------|
e|-------------------------0-----------------------0---|

      C9                     C9
E|--------------------------------------------------|
A|----3----------------------3----------------------|
D|-----2--------------------------------------------|
G|------4---4----4----4---------4---4---------------|
B|-------3----3----3---------3----3------3----------|
e|-----------------------0-------------0------------|


 C9              
Salgo a caminar, me detengo un instante
 Bm7                    Em
miro hacia atrás para verte venir 
        Am     C/B   C    D7sus4 
y me encuentro tan solo.

 C9
Alguna vez has estado en el cielo 
 Bm7                Em
alguna vez has sentido el amor
        Am     C/B   C    D7sus4
y me encuentro tan solo.


   Cmaj7                  C9
Siento el corazón que se escapa de mi
  Bm7                    Em
de alguna manera va llegando a tu lado 
         Am    C/B  C    D7sus4 
y me encuentro tan solo

     C9                      C9
E|------------------------------------------------------|
A|---3-----------------------3--------------------------|
D|------------------------------------------------------|
G|------4---4----4--------------4---4----4--------------|   
B|---3----3----3-------------3----3----3----------------|
e|-------------------0-----------------------0----------|

     C9                      C9
E|---------------------------------------------------|
A|---3-----------------------3-----------------------|
D|---------------------------------------------------|
G|------4---4----4--------------4---4----------------|
B|---3----3----3-------------3----3-------3----------|
e|-------------------0------------------0------------|


 C9
Salgo a caminar tu sonrisa en mi cara
       Bm7                     Em
es una sádica figura que me atrapa al partir
        Am     C/B   C   D7sus4
y me encuentro tan solo.


  Cmaj7                C9
alguna vez has amado despacio,
 Bm7                     Em
alguna vez entregaste tu piel
        Am      C/B   C   D7sus4
y me encuentro tan solo,
    Em                Esus E7    
y me encuentro tan solo,
        Am    Am7 D7sus4 D7
y me encuentro tan solo,  
  C9
sin ti...

FINAL:
      C9       G
E|-------------3------------------|
A|----3--3--0--2------2-----------|
D|----2--2--0----------0----------|
G|----------------0-----0---------|
B|----------------3------3--------|
e|------------------------3-------|


SALUDOS A TODOS MIS CUATES Y PRINCIPALMENTE A =JOSSIANE= DE LA
SECUNDARIA ( JOSE VASCONCELOS TURNO:VERSPERTINO )
HASTA LA PROXIMA!

COMENTARIOS, SUGERENCIAS O DUDAS A:ERI_CK01@             


-/-/-/-/-/-/-/-/-/ ¡VIVA LA TROVA! /-/-/-/-/-/-/-/-/-/-

            
            
Suggest correction
Creating personal tab
Creating personal tab
You can edit any tab online and save it as your Personal.

You can edit, replace or remove any tab part or add personal notes – all changes will be seen only by you.

Personal tabs can be accessed anytime from any device, even offline.
Learn more »
Give kudos to tab author, rate the tab!
1 2 3 4 5
comments
print report bad tab
guest
Wanna post a correction for this tab? Suggest correction