Oops, an error
Loading. Please wait.

Jubilee Street tab

version 2
version 2

Whole song

  • This tab include chords and melody as well.
913 views 120 this week
no commentswrite comment
1 2 3 4 5
2 more votes to show rating
add to favorites
×
Save as Personal and add changes to this tab that will be seen only by you. Learn more ›
×
You can save this tab as Personal to edit and correct it or add notes. All changes will be seen only by you. Learn more »
launch autoscroll
font size
0
reset
how to read this tab
guitar tuner
edit
Autoscroll
slow
fast
+/-
esc
set tempo
stop
About this tab version
This tab include chords and melody as well. Was this info helpful? Yes No
Main guitar (repeated throughout the song) [Intro]
e|-----------------------------|-----------------------------|-----------------------------|
B|-----------------------------|-----------------------------|-----------------------------|
G|------5---3-------------10---|10----------------8-8-8-----5|---5--------5-------5--------|
D|--------3---3--------10------|---10---10/8----8---8-8---5--|-----5--------5-------5------|
A|----6-----------3\8----------|------8-------6-----6-6-3----|-------3--------3-------3----|
E|--4--------------------------|-----------------------------|-----------------------------|

               On Jubilee Street .. [Vocal starts]

[Verse]
e|-----------------------------|-----------------------------|-----------------------------|
B|-----------------------------|-----------------------------|-----------------------------|
G|------5---3-------------10---|10----------------8-8-8-----5|---5--------5-------5--------|
D|--------3---3--------10------|---10---10/8----8---8-8---5--|-----5--------5-------5------|
A|----6-----------3\8----------|------8-------6-----6-6-3----|-------3--------3-------3----|
E|-3-4-------------------------|-----------------------------|-----------------------------|



Medlody (played in the background on a violin)
[Instrumental] @ 2:17 - 2:55
e|-----------------------------------------|-----------------------------------------|
B|----------3-----3------------------------|----------3------3-----------------------|
G|--5-5-3-5---5-----5-3---3-5-----3-5-----3|--5-5-3-5---5-----5-3---3-5----3-5-------|
D|----------------------5-------5-------5--|----------------------5-------5----------|
A|-----------------------------------------|-----------------------------------------|
E|-----------------------------------------|-----------------------------------------|
41



Guitar Chords (played on a acoustic guitar) @ 2:55
    Ab    F5     Eb5   C5
e|--4-----8------6-----3--|
B|--4-----8------6-----3--|
G|--5-----10-----8-----5--|
D|--6-----10-----8-----5--|
A|--6-----8------6-----3--|
E|--4-----8------6-----3--|

Ab                F5       
 The problem was
         Eb5             C5 
 She had a little black book
        Ab      F5          Eb5      C5
 And my name was written on every page
     Ab
 Well a girl's got to make ends meet
  F5                        Eb5     C5 
 Even down on Jubilee Street
                           Ab  
 I was out of place and time
              F5               
 And over the hill
                    Eb5    C5
 And out of my mind
 
 On Jubilee Street



Medlody (played in the background on a piano) [Outro] 
e|---------------10------|-10------------------------|
B|---13-13-11-13----13---|----13-11----11-13----11-13|
G|-----------------------|----------12-------12------|
D|-----------------------|---------------------------|
A|-----------------------|---------------------------|
E|-----------------------|---------------------------|



***********************************
| /   Slide up
| \   Slide down
***********************************



I'm flying
look at me now :)

            
            
Suggest correction
Creating personal tab
Creating personal tab
You can edit any tab online and save it as your Personal.

You can edit, replace or remove any tab part or add personal notes – all changes will be seen only by you.

Personal tabs can be accessed anytime from any device, even offline.
Learn more »
Give kudos to tab author, rate the tab!
1 2 3 4 5
comments
print report bad tab
guest
You may want to rate the tab now too:
select rating
Wanna post a correction for this tab? Suggest correction