Oops, an error
Loading. Please wait.

Circles And Lines chords

100 views 3 this week
no commentswrite comment
1 2 3 4 5
3 more votes to show rating
add to favorites
×
Save as Personal and add changes to this tab that will be seen only by you. Learn more ›
×
You can save this tab as Personal to edit and correct it or add notes. All changes will be seen only by you. Learn more »
launch autoscroll
font size
0
reset
transpose
0
reset
simplify chords
display chords
guitar tuner
edit
Autoscroll
slow
fast
+/-
esc
set tempo
stop
Strumming
There is no strumming pattern for this song yet. and get +5 IQ
Song: Circles and Lines
Artist: Nick Thomas
Album: Shadowars




Capo on 2nd fret




Intro: LEAD GUITAR TABBED WITHOUT CAPO

   Em     Csus2   G           Asus2

e|------------------------------------------------|
B|----/7----------------5--7----------------------|
G|--------6-------4--6--------/6--/6--4-----------|
D|---------------------------------------7--6--4--|
A|------------------------------------------------|
E|------------------------------------------------|

   Em    Csus2   G             Asus2

e|--------9------12--9--9--9---14----------------------------|
B|----/7---------------------------12---/14--12--------------|
G|-----------------------------------------------14--13--11--|
D|-----------------------------------------------------------|
A|-----------------------------------------------------------|
E|-----------------------------------------------------------|




Vers:

Em     Csus2           G       Asus2
  Everything was going just as planned
Em               Csus2        G         Asus2
I, for one, felt confident in making my stand
Em      Csus2            G     Asus2
  Suddenly my spine went slack again,
    Em                Csus2             G        Asus2
And there it was: the vision of us from way back when


Chorus:

G      Asus2  Em                 Csus2
  Oh no,      round and round we go
G                  Asus2     Em         Csus2
  I can't commit to the straight line
         Dsus2                                Em
(Whoa oh oh) Circling you till the end of time


  (Em)    Csus2   G           Asus2

e|------------------------------------------------|
B|----/7----------------5--7----------------------|
G|--------6-------4--6--------/6--/6--4-----------|
D|---------------------------------------7--6--4--|
A|------------------------------------------------|
E|------------------------------------------------|

   Em    Csus2   G             Asus2

e|--------9------12--9--9--9---14----------------------------|
B|----/7---------------------------12---/14--12--------------|
G|-----------------------------------------------14--13--11--|
D|-----------------------------------------------------------|
A|-----------------------------------------------------------|
E|-----------------------------------------------------------|


Vers:

Em       Csus2         G      Asus2
  I feel justified in leaving you,
Em             Csus2                    G              Asus2
Take the ring, take your things, I don't care what you do
Em           Csus2         G    Asus2
  It doesn't really matter anyway
               Em         Csus2     G         Asus2
Cause we'll be right back here in a couple of days


Chorus:

G      Asus2  Em                 Csus2
  Oh no,      round and round we go
G                  Asus2     Em         Csus2
  I can't commit to the straight line
         Dsus2                                Em
(Whoa oh oh) Circling you till the end of time


Bridge:

(Em) Csus2    G   Asus2
Em   Csus2    G   Asus2



Chorus:

G      Asus2  Em                 Csus2
  Oh no,      round and round we go
G                  Asus2     Em         Csus2
  I can't commit to the straight line
         Dsus2                                
(Whoa oh oh) Circling you till the end of time


G      Asus2  Em                 Csus2
  Oh no,      round and round we go
G                  Asus2     Em         Csus2
  I can't commit to the straight line
         Dsus2                                
(Whoa oh oh) Circling you till the end of time

            
            
Suggest correction
Creating personal tab
Creating personal tab
You can edit any tab online and save it as your Personal.

You can edit, replace or remove any tab part or add personal notes – all changes will be seen only by you.

Personal tabs can be accessed anytime from any device, even offline.
Learn more »
Give kudos to tab author, rate the tab!
1 2 3 4 5
comments
print report bad tab
guest
You may want to rate the tab now too:
select rating
Wanna post a correction for this tab? Suggest correction