Oops, an error
Loading. Please wait.

Out Of The Woods chords

version 3
version 3

Whole song

9,753 views 12 this week
1 commentread comment
1 2 3 4 5
x 24
add to favorites
×
Save as Personal and add changes to this tab that will be seen only by you. Learn more ›
×
You can save this tab as Personal to edit and correct it or add notes. All changes will be seen only by you. Learn more »
launch autoscroll
font size
0
reset
transpose
0
reset
display chords
guitar tuner
edit
Autoscroll
slow
fast
+/-
esc
set tempo
stop
Author
Strumming
There is no strumming pattern for this song yet. and get +5 IQ
Okay so this is my first tab. Sorry if it looks lazy, I just don't know what I am doing yet. 

I noticed the other tabs around the web were really never quite right if you 
wanted to pick the notes the same way as the song. So here is what I think sounds best

tuning: DADGAD (that's important)
                                                       OUT OF THE WOODS 
   D   A   G
D--0---0---0-----|
A--0---0---0-----|
G--2---6---4-----|
D--0---7---5-----|
A--0---7---5-----|
D--0---7---5-----|


Verse:
                     D                                  G
I wish you out of the woods, and into a picture with me
                     D                                           G
I wish you over the moon, come out of the question and be
                      D     A             G            
If this is going to run around in my head, I might as well be dreaming
D       A           G
Run around in my head

...and so on. 

The chords don't line up exactly with the words on the transitions. I am sorry 
about that you will just have to listen for it.

If this was helpful, and enough people like it I will go ahead tab out the solo. 
but I won't waste my time if no one like this.

            
            
Suggest correction
Creating personal tab
Creating personal tab
You can edit any tab online and save it as your Personal.

You can edit, replace or remove any tab part or add personal notes – all changes will be seen only by you.

Personal tabs can be accessed anytime from any device, even offline.
Learn more »
comments
print report bad tab
1 comment total.
+1 reply
Maestro Hills 10 Nov 08, 2015 12:19 PM

Here is the picking pattern for the song (don't forget to strum the D-->A-->G part). Hope this helps! (PS - the string tuning is the piece that the other tabs were missing. Good work.)

|D . . . |D . . . |
D---------0---------------0-----|--------0---------------0------|
A-------------------------------|-------------------------------|
G-------2---0-----------2---0---|------2---0-----------2---0----|
D-----0-------0-------0-------0-|-----0-------0-------0-------0-|
A---0---------------0-----------|---0---------------0-----------|
D-0-------------0~~~------------|-0-------------0~~~------------|

|A . . . |A . . . |
D---------0---------------0-----|--------0---------------0------|
A-----------0---------------0---|-----------0---------------0---|
G-------6-----0---------6-----0-|-------6-----0---------6-----0-|
D-----7---------------7---------|-----7---------------7---------|
A---7---------------7-----------|---7---------------7-----------|
D-7-------------7~~~------------|-7-------------7~~~------------|

guest
You may want to rate the tab now too:
select rating
Wanna post a correction for this tab? Suggest correction