Oops, an error
Loading. Please wait.
We have an official Far Away tab made by UG professional guitarists. Check out the tab »
×
15,927 views 3 this week
2 commentsread comments
1 2 3 4 5
x 3
add to favorites
×
Save as Personal and add changes to this tab that will be seen only by you. Learn more ›
×
You can save this tab as Personal to edit and correct it or add notes. All changes will be seen only by you. Learn more »
launch autoscroll
font size
0
reset
how to read this tab
guitar tuner
backing track
0:00
0:00
edit
Autoscroll
slow
fast
+/-
esc
set tempo
stop
Difficulty
intermediate

       ok, i didnt like how some of these people tabbed this song, so im adding some 
to all of it, hopfully it helps u guys a lot more then the other ones.  its a very good 
and not that hard to learn, so have fun with it.

 Verse:

e|-----------------------------------------------------------------|
B|---------------------------------------------------------2-------|
G|-----4---3h4---4-----4---3h4---4-----4---3h4---4-----4-----4---4-|
D|---4---4-----4-----4---4-----4-----4---4-----4-----4---4-----4---|
A|-2-----------------------------------------------2---------------|
E|-----------------2---------------0-------------------------------|


and the chorus is just three simple chords.
you gotta figure out the strumming pattern though,
because i just strum it how i think it sounds best

----- B -------- F# -------- E -------------------|
e|----2----------2-----------0--------------------|
B|----4----------2-----------0--------------------|
G|----4----------3-----------1--------------------|
D|----4----------4-----------2--------------------|
A|----2----------4-----------2--------------------|
E|----2----------2-----------0--------------------|


it basically like this though out the whole song until this one part
where it moves down the neck a half step then its played in the same
way, but with only one thing different. and it stay a half step up
thoughout the rest of the song song u would play the chorus a half
step up also


 Verse:

e|-----------------------------------------------------------------|
B|---------------------------------------------------------3-------|
G|-----5---4h5---5-----5---4h5---5-----5---4h5---5-----5-----5---5-|
D|---5---5-----5-----5---5-----5-----5---5-----5-----5---5-----5---|
A|-3-------------------------------0---------------3---------------|
E|-----------------3-----------------------------------------------|


    here is the chorus

------- C ------- G ------- F -----------------------|
e|------3---------3---------1------------------------|
B|------5---------3---------1------------------------|
G|------5---------4---------2------------------------|
D|------5---------5---------3------------------------|
A|------3---------5---------3------------------------|
E|------3---------3---------1------------------------|


      well theres my input, i kinda fergot if the part where it goes half step up has 
verse or not, i shoulda listen to the song before i tabbed this but oh well lol. hopefully 
guys like it.  well laters, if u got any opinions, my email is guitar_wiz103@hotmail.com

            
            
Suggest correction
Creating personal tab
Creating personal tab
You can edit any tab online and save it as your Personal.

You can edit, replace or remove any tab part or add personal notes – all changes will be seen only by you.

Personal tabs can be accessed anytime from any device, even offline.
Learn more »
Give kudos to tab author, rate the tab!
1 2 3 4 5
comments
print report bad tab
2 comments total.
0 reply
Bladt 10 Feb 16, 2009 02:36 AM

Don't know about the rest, but your verse is the only correct one in here, thanks :D wold you mind doing the prechorus as well?

0 reply
Bladt 10 Feb 16, 2009 02:37 AM

Ps. by in here i mean on ultimate-guitar

guest
Wanna post a correction for this tab? Suggest correction